Enemies - Moving On Chords & Tabs

 

Moving On Chords & Tabs

Enemies Chords & Tabs

Version: 1 Type: Tab 0 ratings
1 star 2 stars 3 stars 4 stars 5 stars
comments

Moving On Tab

Enemies
Moving ON

Intro
|-------5-5---3-3----------5-5--3-3/2----------5-5-3-3----------------|
|----3-------------3--3/3--------------3--3/3------------3--1-3--7----|
|---------------------------------------------------------------------|
|---------------------------------------------------------------------|
|---------------------------------------------------------------------|
|---------------------------------------------------------------------|

Intro (cont)
------------------------|--------------------------------------------|
----3--7-8-10-8-7-8~--3-|--3-x-x-3--1---3--7---3-7-8-10-8-7-8~--3----|
------------------------|--------------------------------------------|
------------------------|--------------------------------------------|
------------------------|--------------------------------------------|
------------------------|--------------------------------------------|

Verse
|---------------------------------------|
|---------------------------------------|
|---7--------5/4--5/4-------------------|
|---7--------5/4--5/4--(couple times)---|
|---5--------3/2--3/2-------------------|
|---------------------------------------|
[ Tab from: http://www.guitartabs.cc/tabs/e/enemies/moving_on_tab.html ]
Chorus 1
|----------------------|
|----------------------|
|---------5------------|
|---3-----5--------5---|
|---3-----3-BREAK--5---|
|---1--------------3---|

Bridge  (x2)
|-----------------------------------|------------|------------|
|-----------------------------------|------------|------------|
|---7--5-4----4----7--5-4----5------|--------7---|--7--5-4----|
|---7--5-4-5--4----7--5-4-5--5------|---5----7---|--7--5-4-5--|
|---5--3-2-5--2----5--3-2-5--3------|---5----5---|--5--3-2-5--|
|----------3--------------3---------|---3--------|---------3--|

Chorus 2
|--------------------------------|---------------|
|--------------------------------|---------------|
|----------7---------------------|---------------|
|----------7-----5------7---(x4)-|--5----7-------|
|---BREAK--5-----5------7--------|--5----7--(x4)-|
|----------------3------5--------|--3----5-------|

Outro
|-------|
|-------|
|--7----|
|--7----|
|--5----|
|-------|

Order
Intro
Verse
Chorus 1
Verse
Chorus 1
Bridge
Chorus 2 
Verse
Chorus 1
Outro

This song is fucking awesome, and is fun to play also... For the intro, i wont really call it 
palm mute, but its something like that!!

IF YOU DONT LIKE IT.... WELL FUCK IT

Giovanni Caligaris

Comments