Enemies - Last Right Chords & Tabs

 

Last Right Chords & Tabs

Enemies Chords & Tabs

Version: 1 Type: Tab 0 ratings
1 star 2 stars 3 stars 4 stars 5 stars
comments

Last Right Tab

Enemies
Last Rights

Intro
|----------------------------------|-----------------------------------------------
|----------------------------------|-----------------------------------------------
|---8----10--8/7---7---7/8/7-------|---3---10--8---10----8----12---10----8----7----
|---8----10--8/7---7---7/8/7--(x2)-|---3---10--8---10----8----12---10----8----7----
|---6----8---6/5---5---5/6/5-------|---1---8---6---8-----6----10---8-----6----5----
|----------------------------------|-----------------------------------------------

-------------------------------------------|
-------------------------------------------|
-----7---10---8---10-----5----3----7/8-----| (x2)
-----7---10---8---10-----5----3----7/8-----| 
-----5---8----6---8------3----1----5/6-----|
-------------------------------------------|


|----------------------------------------|------------------------------------------|
|----------------------------------------|------------------------------------------|
|---5-----12--10--8--10--8-----7---------|---5------12--10--8--10--8-----12---------|
|---5-----12--10--8--10--8-----7----8----|---5------12--10--8--10--8-----12----8----| (x2)
|---3-----10--8---6--8---6-----5----8----|---3------10--8---6--8---6-----10----8----|
|-----------------------------------6----|-------------------------------------6----|

x=pm
|--------------------------------------------|
|--------------------------------------------|
|---5--5x--5------8--8x-----3--3x------5-----|
|---5--5x--5------8--8x-----3--3x------5-----| (x2)
|---3--3x--3------6--6x-----1--1x------3-----|
|--------------------------------------------|
[ Tab from: http://www.guitartabs.cc/tabs/e/enemies/last_right_tab.html ]
Verse  x=pm
|----------------------------------------------------------------------------------------|
|----------------------------------------------------------------------------------------|
|---5xxxx-------8xxxx-----3xxxx----------------5xxxx-------8xxxx------3xxxx------5x--5---|
|---5xxxx-------8xxxx-----3xxxx-----5xxxx------5xxxx-------8xxxx------3xxxx------5x--5---| (x2)
|---3xxxx-------6xxxx-----1xxxx-----5xxxx------3xxxx-------6xxxx------1xxxx------3x--3---|
|-----------------------------------3xxxx------------------------------------------------|

Chorus
|-------------------------------------------------------------|
|-------------------------------------------------------------|
|---5-------8------3--------------5------8-------3------5-----|
|---5-------8------3------5-------5------8-------3------5-----| (x2)
|---3-------6------1------5-------3------6-------1------3-----|
|-------------------------3-----------------------------------|

Bridge
|-------------------------|--------------|
|-------------------------|--------------|
|---5----3----7/8---------|--------------|     For the 4th time it ends on x355xx
|---5----3----7/8---(x3)--|---5-----6----| (x4) 
|---3----1----5/6---------|---5-----6----|
|-------------------------|---3-----4----|

I havent figure out the second part of the Bridge yet, I'm still trying to get it

Then
|---------------------------------------------------|
|---------------------------------------------------|
|---5-----5-----5-----5-----8-----8-----8-----8-----|
|---5--5--5--5--5--5--5-----8--8--8--8--8--8--8-----| (Many times, follow the song)
|---3--5--3--5--3--5--3-----6--8--6--8--6--8--6-----|
|------3-----3-----3-----------6-----6-----6--------|

Outro
|-------------------------|--------------|
|-------------------------|--------------|
|---5----3----7/8---------|--------------|            The Last Note is in the x355xx
|---5----3----7/8---(x3)--|---5-----6----| (many times)
|---3----1----5/6---------|---5-----6----|
|-------------------------|---3-----4----|

This song is fucking awesome, is kind of hard/confusing/fast, is all about practice
Always remember to support The Enemies... www.enemies.net

IF you don't like it..... WELL FUCK IT!!!!

Giovanni Caligaris
Comments