Endure - Take This Life And Go Chords & Tabs

 

Take This Life And Go Chords & Tabs

Endure Chords & Tabs

Version: 2 Type: Bass Tab 0 ratings
1 star 2 stars 3 stars 4 stars 5 stars
comments

Take This Life And Go Bass Tab

                  " Take this life and go"
                      by Endure
************************************************************************

Bass tab for take this life and go by endure
tabbed by d.smith
hi on personal note i want to say that your going to see Endure in the 
future.  they have some great songs.  everything they play is meaningful and 
it sounds awsome.  some songs are hard and some are more mellow.

[ Tab from: http://www.guitartabs.cc/tabs/e/endure/take_this_life_and_go_btab_ver_2.html ]
tuning: tune all strings down one note.
song can be played just about everyway except slap.
   intro into song
G)|------------------------------------------------------------------|
D)|-----------12-10-----------12-10-------12-10-----------9-12-13-12-|
A)|---------0-------------0-0------------0------------0-0------------|
E)|--9-12--0--------9-12-0---------9-12-0-------9-12-0---------------|
play this riff x2
    verse
G)|----------------9-----------------9-------------------9-----------|
D)|------12-10-------9-9-----12-10-----9-9-----12-10--------9-9------|
A)|------------11-9---------------11-9---------------11-9------------|
E)|--9-12----------------9-12--------------9-12----------------------|
play x3
    chorus
G)|------------------------------------------------------------------|
D)|------------------------------------------------------------------|
A)|-----------------12-13-10-----------------12-13-10----------------|
E)|--999---12-12-12-----------999---12-12-12----------999-12-12-12-10|
play x2
     verse
G)|-----------------9--------------------9-------------------9-------|
D)|------12-10--------9-9-----12-10--------9-9-----12-10------9-9----|
A)|------------11-9-----------------11-9-----------------11-9--------|
E)|--9-12----------------9-12------------------9-12------------------|
     2nd chorus
G)|------------------------------------------------------------------|
D)|------------------------------------------------------------------|
A)|----------------12-13-10---------------12-13-10---1-1-1-1-1--2----|
E)|-999----12-12-12----------999-12-12-12-----------0-0-0-0-0-0--3---|
   play x2
     solo
G)|--8-----8--------7-8----8-------7--8----8--------7--|
D)|-----8----8-9-7-----8----8-8-9-7-----8-----8-9-7----|
A)|-9-9--9--9--------9-9--9--9------9--9--9--9---------|
E)|--------------------------------------------------0-|
  play this only once and play it  extremly fast.  each note = 8th note
     final chourus
G)|------------------------------------------------------------------|
D)|------------------------------------------------------------------|
A)|--------------12-13-10----------------12-13-10--------------------|
E)|-999-12-12-12----------9-9-9-12-12-12-----------0-0-0-0-0-0-1-3-0-|
play x3

  well that's about it. it's a hard song to play but sounds really cool.  
the chorus changes three times but keeps the same rythm. i'll have more 
songs up later.  if you want to e-mail me about the song : 
thenewfnshowecw@hotmail.com
later
Comments