Endo - Clean Sheetsand A Dirty Mind Chords & Tabs

 

Clean Sheetsand A Dirty Mind Chords & Tabs

Endo Chords & Tabs

Version: 1 Type: Tab 0 ratings
1 star 2 stars 3 stars 4 stars 5 stars
comments

Clean Sheetsand A Dirty Mind Tab

   
-----------------------------------------------------------------------------
song:clean sheets(and a dirty mind)  12/10/04

band:ENDO                                                
-------------------------------------------------------------------------------
Tabbed by:VLADIMIR A. REYES
Email:ALEXr0725@YAHOO.COM
      ALEXr0725@HOTMAIL.COM


Tuning:E\A\D\G\B\E.




            ACCUSTIC GUITAR
   this is not exactly the strumming, listen to the song.

       
    INTRO AND VERSE
e|---------------------------------------------------------------------------|
B|---------------------------------------------------------------------------|
G|---------------------------------------------------------------------------|
D|--4--4--2---2-2--4--4-4--4--4-4--------------------------------------------|
A|--2--2--2---2-2--2--2-2--2--2-2--------------------------------------------|
E|--0--0--0---0-0--2--2-2--2--2-2--------------------------------------------|

 
                     electric guitar
                      -------------- 
                      --------------  
                      ------4-------
                      ------4-------
                      ------2-------
                      ------0-------


  
      chorus (use distortion)   REPIT CHORUS AND VERSE.  
e|---------------------------------------------------------------------------|
B|---------------------------------------------------------------------------|
G|---------------------------------------------------------------------------|
D|--2--2---2--2--4----4--4--4--4--4--x--5--5-5--5-5--x--7--7-7--7-7----------|
A|--2--2---2--2--2---4--4--4--4--4--x---5--5-5--5-5--x--7--7-7--7-7----------|
E|--0--0---0--0--0--2--2--2-2--2--x-----3--3-3--3-3--x--5--5-5--5-5----------|


   
      this is the bridge
[ Tab from: http://www.guitartabs.cc/tabs/e/endo/clean_sheetsand_a_dirty_mind_tab.html ]
     C             A          Em             G                    C            A
e|---------------------------------0-----------------3------------------------------------| 2
B|----------1------------0-----------0-----------------3-----------------1----------0-----|TIMES
G|-------0----0--------2--2------------0------------------0------------0---0-------2------|
D|----2---------2----2-----2----2----------------0-----------0------2--------2---2--------|
A|--3-------------0------------2---------------2------------------3------------0----------|
E|---------------------------0---------------3--------------------------------------------|
    

       
      JUST FEEL THE MUSIC AND PLAY IT LIKE YOU THINK IT'S RIGHT.

   OUTRO       (ELECTRIC GUITAR)
e|---------------------------------------------------------------------------|
B|---------------------------------------------------------------------------|REPIT 
G|---------------------------------------------------------------------------|  4
D|---2--2---2--2--4---4--4-4--4-4--------------------------------------------|TIMES.
A|---2--2---2--2--2---4--4-4--4-4--------------------------------------------|
E|---0--0---0--0--0---2--2-2--2-2--------------------------------------------|


   I THINK! THE OTHER GUITAR PLAY THIS WHILE THE OUTRO
e|---------------------------------------------------------------------------|
B|---------------------------------------------------------------------------|
G|---9--9---9--9--9----11---11--11---11--11----------------------------------|
D|---9--9---9--9--9---11---11--11---11--11-----------------------------------|
A|---7--7---7--7--7---9----9---9----9---9------------------------------------|
E|---------------------------------------------------------------------------|
  
  WELL! THIS IS MY FIRST TAB .
        IT MIGHT BE SOMETHING MISSING(FIND IT)

  I HOPE YOU ENJOY IT.(333)



===============================================================================
Comments