Endo - Circles Chords & Tabs

 

Circles Chords & Tabs

Endo Chords & Tabs

Version: 1 Type: Tab 0 ratings
1 star 2 stars 3 stars 4 stars 5 stars
comments

Circles Tab

tabbed by alan

tuning 1 step down from standard 6:D 5:A 4:F 3:C 2:G 1:D

/= slide

-----------------------------0------------|
------0-----7-----7/8--8--------8---------|
---------0-----0----------0-------0-------|
-------------------------------------0----|
-5/7--------------------------------------|
------------------------------------------|
[ Tab from: http://www.guitartabs.cc/tabs/e/endo/circles_tab.html ]
----------------8--------8----------------|
----0-----7--------7--------7-------------|
-------0-----0--------0--------0----------|
----------------------------------0-------|
-5----------------------------------------|
------------------------------------------|

---------------------------10-------------|
----0-----7-----7/8--8---------8----------|
-------0-----0----------0---------0-------|
-------------------------------------0----|
------------------------------------------|
-8----------------------------------------|

------------------------------------------|
----7--7----------------------------------|
-------7----------------------------------|
-------7----------------------------------|
-------5----------------------------------|
-5-----5----------------------------------|
Comments