Endless Struggle - Lost Generation Chords & Tabs

 

Lost Generation Chords & Tabs

Endless Struggle Chords & Tabs

Version: 1 Type: Tab 0 ratings
1 star 2 stars 3 stars 4 stars 5 stars
comments

Lost Generation Tab

band:endless sruggle
song:lost generation
album:in the day
these guys are from salt lake city and are probably one of the better sreetpunk bands
in the scene.they unfortionatly broke up a few months back but are still may favorite.
ive never seen any tabs of thier songs so i thought i would post one.

guitar 1 intro
e-----------------------------------------------------------|
b-----------------------------------------------------------|
g--------------12xxxxx12x121212-----------------------------|
d7xxxxxxxxxxxx-10xxxxx10x101010repeatx4.then-7~-------------|
a5xxxxxxxxxxxx-------------------------------5~-------------|
e-----------------------------------------------------------|

guitar 2 intro
e-----------------------------------------------------------|
b-----------------------------------------------------------|
g-----------------------------------------------------------|
d7xxxxxxxxxxxx-5xxxxxxxxxxxx--------------7~----------------|
a5xxxxxxxxxxxx-3xxxxxxxxxxxxrepeatx4.then-5~----------------|
e-----------------------------------------------------------|
[ Tab from: http://www.guitartabs.cc/tabs/e/endless_struggle/lost_generation_tab.html ]
verse:
e-----------------------------------------------------------|
b-----------------------------------------------------------|
g-----------------------------------------------------------|
d5/7777777-5/7777777-9/10101010101010/12\9999999------------|
a3/5555555-3/5555555-7/-8-8-8-8-8-8-8/10\7777777------------|
e-----------------------------------------------------------|
after the intro ends the second guitar plays the verse once while guitar 1 plays this.
e-----------------------------------------------------------|
b-----------------------------------------------------------|
g-----------------------------------------------------------|intro 2
d5/7-5/7-9/10\9---------------------------------------------|
a3/5-3/5-7/-8\7---------------------------------------------|
e-----------------------------------------------------------|
after this both guitars play the verse togeather.
chorus:
e---------------------------------------------------------------|
b---------------------------------------------------------------|
g---------------------------------------------------------------|
d1212121212121212\99999999--------------11111111111111111111\10-|
a1010101010101010\77777777repeatx5.then--9-9-9-9-9-9-9-9-9-9\-8-|
e---------------------------------------------------------------|

bridge:on this part ypu can use a harmonic or plam mute and alternate pick.
e------------------------------------------------------------|
b------------------------------------------------------------|
g------------------------------------------------------------|
d777777777777777777777777777777777777777777777777777777777777
a------------------------------------------------------------|
e------------------------------------------------------------|
just keep hitting that note.then after the bridge you play intro 2 once then back to the verse.

outro:
e------------------------------------------------------------|
b------------------------------------------------------------|
g------------------------------------------------------------|
d11\10\9\7~--------------------------------------------------|
a-9\-8\7\5~--------------------------------------------------|
e------------------------------------------------------------|

legend:
xxx-palm mutting
~-let note ring
\-slide up
/-slide down

any questions e mail me at viva_la_revolution741@hotmail.com
Comments