Endarkend - Breaking The Law Chords & Tabs

 

Breaking The Law Chords & Tabs

Endarkend Chords & Tabs

Version: 1 Type: Bass Tab 0 ratings
1 star 2 stars 3 stars 4 stars 5 stars
comments

Breaking The Law Bass Tab

||| ENDARKEND - BREAKING THE LAW |||
       www.endarkend.be.tt

Tabbed by: cradleoffilth


Intro
G||--------------------------|--------------------------|--------------------------|--------------------------|
D||--------------------------|--------------------------|--------------------------|--------------------------|
A||--------------------------|--------------------------|--------------------------|--------------------------| [x2]
E||--5--5--5--5--5--5--5--5--|--5--5--5--5--5--5--5--5--|--1--1--1--1--1--1--1--1--|--3--3--3--3--3--3--3--3--|

Verse
"There I was completely wasting..."
"All inside it's so frustrating..."
|--------------------------|--------------------------|--------------------------|--------------------------|
|--------------------------|--------------------------|--------------------------|--------------------------|
|--------------------------|--------------------------|--3--3--3--3--------------|--------------------------| [x2]
|--5--5--5--5--5--5--5--5--|--5--5--5--5--5--5--5--5--|--------------3--3--3--3--|--5--5--5--5--5--5--5--5--|

"Feel as though nobody cares..."
|--------------------------|--------------------------|--------------------------|--------------------------|
|--------------------------|--------------------------|--------------------------|--------------------------|
|--------------------------|--------------------------|--3--3--3--3--3--3--3--3--|--3--3--3--3--3--3--3--3--|
|--1--1--1--1--1--1--1--1--|--1--1--1--1--1--1--1--1--|--------------------------|--------------------------|
[ Tab from: http://www.guitartabs.cc/tabs/e/endarkend/breaking_the_law_btab.html ]
|--------------------------|--------------------------|--------------------------|-------------------|
|--------------------------|--------------------------|--------------------------|-------------------|
|--------------------------|--------------------------|--------------------------|-------------------|
|--1--1--1--1--1--1--1--1--|--1--1--1--1--1--1--1--1--|--0--0--0--0--0--0--0--0--|--0----------------|

Chorus
"Breaking the law, breaking the law..."
|--------------------------|--------------------------|--------------------------|-------------------------|
|--------------------------|-----------------------5--|--------------------------|-----------------5----5--|
|--0--0--0--0--0--0--0--0--|--0--0--0--0--0--0--0-----|--0--0--0--0--0--0--0--0--|--0--0--0--0--0----------| [x2]
|--------------------------|--------------------------|--------------------------|-------------------------|

Repeat verse x1

Repeat chorus x1
|--------------------------|--------------------------|
|--------------------------|--------------------------|
|--2--2--2--2--2--2--2--2--|--2--2--2--2--5--5--5--5--| [x4]
|--------------------------|--------------------------|

|--------------------------|--------------------------|--------------------------|--------------------------|
|--------------------------|--3--3--3-----------------|--------------------------|--------------5--5--5--5--|
|--5--5--5--5--5--5--5--5--|-----------3--3--3--3--5--|--5--5--5--5--5--5--5--5--|--8--8--8--8--------------| [x2]
|--------------------------|--------------------------|--------------------------|--------------------------|

|------------------|------------------|-------------------|-------------------|--------------------|
|------------------|------------------|-------------------|-------------------|--------------------|
|------------------|------------------|-------------------|-------------------|--------------------|
|------------------|------------------|--1----------------|--3----------------|--5--------5--------|

|--------------------|----------------------|--------------------------|
|--------------------|----------------------|--------------------------|
|--------------------|----------------------|--------------------------|
|--5--------5--------|--1----1----1----1----|--3--3--3--3--3--3--3--3--|
Comments