End Of Fashion - Rough Diamonds Chords & Tabs

 

Rough Diamonds Chords & Tabs

End Of Fashion Chords & Tabs

Version: 1 Type: Bass Tab 0 ratings
1 star 2 stars 3 stars 4 stars 5 stars
comments

Rough Diamonds Bass Tab

   
End Of Fashion - Rough Diamonds

Tabbed By Stephen Pang (piequat@hotmail.com)

Guitar intro, then
G|-----|
D|-----|
A|-----|
E|-17\-|

Verse
G|------------------|------------------|
D|------------------|------------------|
A|------------------|------------------|
E|-5-5-5-5-5-5-5-5h7|-2-2-2-2-2-2-2-0h2|

G|---------------------|----------------------|
D|---------------------|----------------------|
A|----------5-5-5/9-12\|-----------4h5h7-5p4--|
E|-3-3--3/7------------|-5-5--/4h5-----------5|

Chorus
G|----------------|-------------------|
D|----------------|-------------------|
A|-5-5-5-5-5-5-5-5|-3-3-3-3-3-3-3h5-5-|
E|----------------|-------------------|
[ Tab from: http://www.guitartabs.cc/tabs/e/end_of_fashion/rough_diamonds_btab.html ]
G|-------------------|------------------------|
D|-------------------|-----------4h5h7-5p4----|
A|-------------------|-5-5--/4h5-----------5p3|
E|-3-3-3-3-6-6--5h6p5|------------------------|

G|----------------|------------------|
D|----------------|------------------|
A|-5-5-5-5-5-5-5-5|-3-3-3-3-3-3-3-3-3|
E|----------------|------------------|

G|-----------------|
D|-----------------|
A|-----------------|
E|-3-3-3-3-6-6-6-6-|

Breakdown
G|---------------------|----------------------|
D|---------------------|----------------------|
A|---------------4h5p4-|-------4h5p4-/7--5p4--|
E|-5-5-5-5-5-5-5-------|-5-5-5---------------5|

G|-----------------|-----------------|
D|-----------------|-----------------|
A|-----------------|-------------12\-|
E|-3-3-3-3-3-3-3-3-|-3-3-3-3-3-3-----|
Comments