End Of Fashion - O Yeh Chords & Tabs

 

O Yeh Chords & Tabs

End Of Fashion Chords & Tabs

Version: 3 Type: Tab 0 ratings
1 star 2 stars 3 stars 4 stars 5 stars
comments

O Yeh Tab

Think this is pretty close.
Here it is:

Tunning: standard
Intro/Verses:

e|-0---------4----------7--------5-------------------------------------------|
B|-0---------5----------7--------6-------------------------------------------|
G|-1---------6----------8--------7-------------------------------------------|
D|-2---------6----------9--------7-------------------------------------------|
A|-2---------4----------9--------5-------------------------------------------|
E|-0---------x----------7--------x-------------------------------------------|

Chorus:
[ Tab from: http://www.guitartabs.cc/tabs/e/end_of_fashion/o_yeh_tab_ver_3.html ]
e|-x---------x----------x--------x-------------------------------------------|
B|-x---------x----------x--------x-------------------------------------------|
G|-4---------6----------0--------0-------------------------------------------|
D|-4---------6----------6--------4-------------------------------------------|
A|-2---------4----------6--------4-------------------------------------------|
E|-0---------0----------4--------2-------------------------------------------|

Bridge:
                                        
e|-x---------0-----------------------------------------x---------------------|
B|-1---------0-----------------------------------------x---------------------|
G|-2---------1-----------------------------------------4---------------------|
D|-2---------2-----------------------------------------4---------------------|
A|-0---------2-----------------------------------------2---------------------|
E|-x---------0-----------------------------------------0---------------------|
                        Finishes with this power chord ^

Any questions?
E-mail me at Alias.Axel@gmail.com
Enjoy.
Tabbed by Axel
Comments