End Of Fashion - O Yeh Chords & Tabs

 

O Yeh Chords & Tabs

End Of Fashion Chords & Tabs

Version: 2 Type: Tab 0 ratings
1 star 2 stars 3 stars 4 stars 5 stars
comments

O Yeh Tab

   
First timer here.
Tunning: Standard


same basic thing throughout the song 
Intro/ Chorus(power cords)/ Outro (vamping at end)

e|-0---------9----------4--------2-------------------------------------------|
B|-0---------5----------4--------2-------------------------------------------|
G|-1---------6----------5--------3-------------------------------------------|
D|-2---------6----------6--------4-------------------------------------------|
A|-2---------4----------6--------4-------------------------------------------|
E|-0---------4----------4--------2-------------------------------------------|

[ Tab from: http://www.guitartabs.cc/tabs/e/end_of_fashion/o_yeh_tab_ver_2.html ]
Background rift in Chorus/ Part of it was in the intro
Gonna need another guitar for this but its really just for aesthetics 
e|-0----0----4----4----4----4----6----6----------------------------------|
B|---0----0----0----0----0----0----0----0--------------------------------|
G|-----------------------------------------------------------------------|
D|-----------------------------------------------------------------------|
A|-----------------------------------------------------------------------|
E|-----------------------------------------------------------------------|



Bridge 

   Em     Am    B
e|-0------0-----x---|
B|-0------1-----x---|
G|-1------2-----4---|
D|-2------2-----4---|
A|-2------0-----2---|
E|-0------x-----x---|
 
      Am         Em
Cmon sweet candy

                   Am         Em
just give me some sweet candy

                   Am     Em
you make me feel oooh baby 

                      B
You think your all that 



Easy!
Have fun.
Comments