End Of Fashion - O Yeh Chords & Tabs

 

O Yeh Chords & Tabs

End Of Fashion Chords & Tabs

Version: 1 Type: Tab 0 ratings
1 star 2 stars 3 stars 4 stars 5 stars
comments

O Yeh Tab

this my first tab and its kinda doggy its the intro and chorus and outro. u can figor out the struming

-------------------------------------------------------------------------------
			     SONG NAME o yeh- Band Name end of fashion
-------------------------------------------------------------------------------
Tabbed by: nick
Email:wankster1@hotmail.com
[ Tab from: http://www.guitartabs.cc/tabs/e/end_of_fashion/o_yeh_tab.html ]
Tuning:
ontro/verse
e|-0---------9----------4--------2-------------------------------------------|
B|-0---------9----------4--------2-------------------------------------------|
G|-1--------10----------5--------3-------------------------------------------|
D|-2--------11----------6--------4-------------------------------------------|
A|-2--------11----------6--------4-------------------------------------------|
E|-0---------9----------4--------2-------------------------------------------|
chorus/outro
e|---------------------------------------------------------------------------|
B|---------------------------------------------------------------------------|
G|---------------------------------------------------------------------------|
D|-2-------11------6------4-------x-x----------------------------------------|
A|-2-------11------6------4-------x-x----------------------------------------|
E|-0--------9------4------2-------x-x----------------------------------------|

| x  Mute note
===============================================================================
so there u go its probably not right but it sounds good and is fun 2 play
Comments