Enanitos Verdes - Tus Viejas Cartas Chords & Tabs

 

Tus Viejas Cartas Chords & Tabs

Enanitos Verdes Chords & Tabs

Version: 1 Type: Tab 0 ratings
1 star 2 stars 3 stars 4 stars 5 stars
comments

Tus Viejas Cartas Tab

   
---------------------------------------------------------------------------
		TUS VIEJAS CARTAS-Enanitos Verdes
---------------------------------------------------------------------------
Tabbed by: David Espino
Email: vansskaterd@yahoo.com
PLEASE RATE!!!

Intro: G Em Am D

   G
Estuve leyendo 
 Em
tus viejas cartas
    Am
donde me hablabas
 D
de amor
  G
usando palabras 
    Em
querias decirme
 Am
ya no puedo estar 
     D
sin vos

   C        D   Em
Y donde quedo ahora
  C         D    Em
esa hermosa ilusion
 C      D       Em
de regalarte a vos
      F          D
lo mejor de mi amor

   G
Creimos que todo 
   Em
habia cambiado
      Am
no habia razon 
      D
ya para estar mal
   G
pero el otono 
    Em
golpeo nuestra puerta
Am
y como una hoja 
          D
nuestro amor murio

   C        D   Em
Y donde quedo ahora
  C         D    Em
esa hermosa ilusion
 C      D       Em
de regalarte a vos
      F          D
lo mejor de mi amor

   F
A veces los sentimientos 
        C
no se pueden manejar

    F
y cuando nos atrapan 
      C
no podemos escapar 
       Am          Am7     D
y es asi, nuestro corazon sufre
[ Tab from: http://www.guitartabs.cc/tabs/e/enanitos_verdes/tus_viejas_cartas_tab.html ]
Solo:
        G		      Em		Am
e|-----------------------------------------------------------------|
B|--8-10-11-10-(8)h10v~--8-10-11-10-(8)h10-10-5----7-8-7-5---------|
G|-----------------------------------------------7---------7br~br~-|
D|-----------------------------------------------------------------|
A|-----------------------------------------------------------------|
E|-----------------------------------------------------------------|
   D			     G		  Em			  Am
e|----------------------------------------------------------------------|
B|-----------------------------------------8-10-11-11/12-8--15-17-19-20-|
G|--------------------------(10)/12-10-9-7------------------------------|
D|-5h7-5----------------------------------------------------------------|
A|-------7-7h8-7-5-5h7-5v~----------------------------------------------|
E|----------------------------------------------------------------------|
			D
e|------------------------------------------------|
B|-19-17-15b~17-15--15-17-17\15---------(17)-(15)-|
G|------------------------------13-15//-----------|
D|------------------------------------------------|
A|------------------------------------------------|
E|------------------------------------------------|

G
Y sigue y sigue 
       Em
dando vueltas y vueltas
    Am               D
la loca rueda de la vida
   G            Em
y sigue rodando en mi cabeza
     Am                  D
el enigma cautivante de tu voz

   C        D   Em
Y donde quedo ahora
  C         D    Em
esa hermosa ilusion
 C      D       Em
de regalarte a vos

      F          Em
lo mejor de mi amor
      F          Em
lo mejor de mi amor
      F          Em
lo mejor de mi amor
        D  C
de mi amor

any suggestions or comments e mail me. Please Rate!!!
Comments