Enanitos Verdes - Tu Carcel Chords & Tabs

 

Tu Carcel Chords & Tabs

Enanitos Verdes Chords & Tabs

Version: 2 Type: Tab 0 ratings
1 star 2 stars 3 stars 4 stars 5 stars
comments

Tu Carcel Tab

   
Intro:

E--------------------------------------------------|
B--------------------------------------------------|
G--9h11--11/9-7----7-7-9-9h11-11-7-9-9-7-6---------|
D--------------------------------------------------|
A--------------------------------------------------|
E--------------------------------------------------|


E-------------------------------------------------|
B-------------------------------------------------|
G--6-6-7-9-9-6-7--7-6-4---4-4-4-7-6-4-6/7/9-9-----|
D-------------------------------------------------|
A-------------------------------------------------|
E-------------------------------------------------|


     D                             A
E-------------------------------------------------|
B-------------------------------------------------|
G--9h11--11/9-7----7-7-9-9h11-11-7-9-9-7-6--------|
D-------------------------------------------------|
A-------------------------------------------------|
E-------------------------------------------------|

              Bm          G                  A
E-------------------------------------------------|
B-------------------------------------------------|
G--6-6-7-9-9-6-7--7-6-4---4-4-4-7-6-4-6/7/9-9-----|
D-------------------------------------------------|
A-------------------------------------------------|
E-------------------------------------------------|


D
Te vas amor si así lo quieres
      A
que puedo yo hacer, tu vanidad
        Bm
no te deja entender
G                      A
  que en la pobreza se sabe querer.

 D
Quiero llorar y me destroza
     A
que pienses así, y mas que
           Bm
ahora me quede sin ti
G                    A             A7
  me duele lo que tu vas a sufrir.

 D
Pero recuerda, nadie es perfecto
  A
y tu lo veras mas de mil cosas
    Bm
mejores tendrás
G                    A          A7
  pero un cariño sincero jamás.

 D
Vete olvidando,de esto que hoy dejas
   A
y que cambiaras, por la aventura que
   Bm
tu ya veras.
G                 A
  Será tu cárcel y nunca saldrás.

     D                             A
E-------------------------------------------------|
B-------------------------------------------------|
G--9h11--11/9-7----7-7-9-9h11-11-7-9-9-7-6--------|
D-------------------------------------------------|
A-------------------------------------------------|
E-------------------------------------------------|
[ Tab from: http://www.guitartabs.cc/tabs/e/enanitos_verdes/tu_carcel_tab_ver_2.html ]
              Bm          G                  A
E-----------------------------------------------------------|
B-----------------------------------------------------------|
G--6-6-7-9-9-6-7--7-6-4---4-4-4-7-6-4-6/7/9-9--9h119h119h11-|
D-----------------------------------------------------------|
A-----------------------------------------------------------|
E-----------------------------------------------------------|

 D
Quiero llorar y me destroza
     A
que pienses así, y mas que
           Bm
ahora me quede sin ti
G                    A             A7
  me duele lo que tu vas a sufrir.

 D
Pero recuerda, nadie es perfecto
  A
y tu lo veras más de mil cosas
    Bm
mejores tendrás
G                    A          A7
  pero un cariño sincero jamás.

 D
Vete olvidando,de esto que hoy dejas
   A
y que cambiarás, por la aventura que
   Bm
tu ya veras.
G                 A
  Será tu cárcel y nunca saldrás.


 D
Pero recuerda, nadie es perfecto
  A
y tu lo veras mas de mil cosas
    Bm
mejores tendrás
G                    A          A7
  pero un cariño sincero jamás.

 D
Vete olvidando,de esto que hoy dejas
   A
y que cambiaras, por la aventura que
   Bm
tu ya veras.
G                 A   A7         D
  Será tu cárcel y nuuunca saldrás.

SOLO
1a parte

E--------------------------------------------------|
B--17/19-19-17--------------17-19-19---17-17-------|
G--------------19-----19-19---------19------19-18--|
---------------------------------------------------|
D--------------------------------------------------|
A--------------------------------------------------|
E--------------------------------------------------|

E-------------------------------------------|
B----------17-17----------------------------|
G--18-18-19-----18-19--19-18-16-------------|
D-------------------------------------------|
A-------------------------------------------|
E-------------------------------------------|

E-----------------------------------------------------|
B---------------------------17--17--17h19//-19-17/19--|b
G16-16-16-19-18-16-18-19--18--18----------------------|
D-----------------------------------------------------|
A-----------------------------------------------------|
E-----------------------------------------------------|

2a parte
E--------------------------------------------------|
B--------------------------------------------------|
G--9h11--11/9-7----7-7-9-9h11-11-7-9-9-7-6---------|
D--------------------------------------------------|
A--------------------------------------------------|
E--------------------------------------------------|


E----------------------------------------------------------------|
B----------------------------------------------------------------|
G--6-6-7-9-9-6-7--7-6-4---4-4-4-7-6-4-6/7/9-9---9/11-9-11-9-7/---|
D----------------------------------------------------------------|
A----------------------------------------------------------------|
E----------------------------------------------------------------|
Comments