Enanitos Verdes - Tu Carcel Chords & Tabs

 

Tu Carcel Chords & Tabs

Enanitos Verdes Chords & Tabs

Version: 1 Type: Tab 0 ratings
1 star 2 stars 3 stars 4 stars 5 stars
comments

Tu Carcel Tab

   
E|---------------------------------------------------------------------|
B|--5h7--7-5-----------------------------------------------------------|
G|------------7--7-7--9--11-11--7-7h9--9-7-6--6-6--7--9-9--6h7--7-6-5--|
D|---------------------------------------------------------------------|
A|---------------------------------------------------------------------|
E|---------------------------------------------------------------------|

E|-----------------------|
B|--4-4-6-7-6-4-6-7-9-9--|
G|-----------------------|
D|-----------------------|
A|-----------------------|
E|-----------------------|

C-G-Am-F-D-G

 C
Te vas amor, si así lo quieres
     G
que puedo yo hacer, tu vanidad
       Am
no te deja entender
F                   D         G
 que en pobreza se sabe querer.

  C
Quiero llorar, y me destroza
     G
que pienses así, y más que
           Am
ahora me quede sin ti
F                    D           G-G7
 me duele lo que tu vas a sufrir.


Coro:

C
Pero recuerda, nadie es perfecto
   G
y tú lo veras, mas de mil cosas
   Am
mejores tendrás
F                D         G
 pero cariño sincero jamás.

C
Vete olvidando, esto que hoy dejas
    G
y que cambiaras, por la aventura
     Am
que tu ya veras,
F                  D            G
 será tu cárcel y nunca saldrás.


Solo:
[ Tab from: http://www.guitartabs.cc/tabs/e/enanitos_verdes/tu_carcel_tab.html ]
E|---------------------------------------------------------------------|
B|--5h7--7-5-----------------------------------------------------------|
G|------------7--7-7--9--11-11--7-7h9--9-7-6--6-6--7--9-9--6h7--7-6-5--|
D|---------------------------------------------------------------------|
A|---------------------------------------------------------------------|
E|---------------------------------------------------------------------|

E|--------------------------------------------------------------|
B|--4-4-6-7-6-4-6-7-9-9--9h11-9h11-9h11-9h11-9h11-9h11-9h11--9--|
G|--------------------------------------------------------------|
D|--------------------------------------------------------------|
A|--------------------------------------------------------------|
E|--------------------------------------------------------------|


 C
Quiero llorar, y me destroza
     G
que pienses así, y más que
           Am
ahora me quede sin ti
F                    D           G-G7
 me duele lo que tu vas a sufrir.


Coro:

C
Pero recuerda, nadie es perfecto
   G
y tú lo veras, mas de mil cosas
   Am
mejores tendrás
F                D         G
 pero cariño sincero jamás.

C
Vete olvidando, esto que hoy dejas
    G
y que cambiaras, por la aventura
     Am
que tu ya veras,
F                  D            G
 será tu cárcel y nunca saldrás.

C
Pero recuerda, nadie es perfecto
   G
y tú lo veras, mas de mil cosas
   Am
mejores tendrás
F                D         G
 pero cariño sincero jamás.

C
Vete olvidando, esto que hoy dejas
    G
y que cambiaras, por la aventura
     Am
que tu ya veras,
F                  D            G
 será tu cárcel y nunca saldrás.
Comments