Enanitos Verdes - Lamento Boliviano Chords & Tabs

 

Lamento Boliviano Chords & Tabs

Enanitos Verdes Chords & Tabs

Version: 2 Type: Tab 0 ratings
1 star 2 stars 3 stars 4 stars 5 stars
comments

Lamento Boliviano Tab

   
-----------------------------------------------------------------------------
			     Lamento Boliviano - Enanitos Verdes
-----------------------------------------------------------------------------
Tabbed by:David Espino
Email:vansskaterd@yahoo.com

Tuning: Standard (EADGBe)

   Em
Me quieren agitar

me incitan a gritar,
   Bm
soy como una roca,

palabras no me tocan
   Am
adentro hay un volcan

que pronto va a estallar
Em                  B7
yo quiero estar tranquilo

 Em
Es mi situacion

una desolacion
 Bm
soy como un lamento,

lamento boliviano
       Am
Que un dia empezo

y no va a terminar
Em             B7
ya nadie hace daño

(same chords)

             Em
Y yo estoy aquí
            Bm
borracho y loco
          A#m-Am
y mi corazon idiota
             Em     B7
siempre brillará


           Em
Y yo te amaré
               Bm
te amare por siempre
            A#m - Am
nena no te peines en la cama
             Em
que los viajantes
             B7
se van a atrasar

solo:

e-----0--2--3--2--0------------0--3--2--0------2-----|
B--0-----------------0---0--3--------------3---------|
G--------------------------------------------------3-|
D----------------------------------------------------|
A----------------------------------------------------|
E----------------------------------------------------|

e--------12-10-12-------------------------|
B--12-12-----------12-10------10-12-10----|
G-------------------------12-----------12-|
D-----------------------------------------|
A-----------------------------------------|
E-----------------------------------------|

e--------------------------------------|
B--10-12-10-----10-12-10---------------|
G------------12-----------12-11-12-11--|h
D--------------------------------------|
A--------------------------------------|
E--------------------------------------|
[ Tab from: http://www.guitartabs.cc/tabs/e/enanitos_verdes/lamento_boliviano_tab_ver_2.html ]
e----------------------15----15-14-12----15-14-12------------|
B-------------------17----------------------------10-12-9-10-|
G----------------16------------------------------------------|
D-------------17---------------------------------------------|
A--14-13-14--------------------------------------------------|
E------------------------------------------------------------|

e----------------------------------|
B-------10-12-10-----10--12-10-----|
G--9-12-----------12------------12-|
D----------------------------------|
A----------------------------------|
E----------------------------------|

e--15-15---14---12---15-----14-----12------------------|
B------------------------14----13------10-----12-------|
G-------------------------------------------------12-9-|
D------------------------------------------------------|
A------------------------------------------------------|
E------------------------------------------------------|

             Em
Y yo estoy aquí
             Bm
borracho y loco
          A#m-Am
y mi corazon idiota
             Em     B7
siempre brillará


           Em
Y yo te amaré
               Bm
te amare por siempre
            A#m - Am
nena no te peines en la cama
             Em
que los viajantes
             B7
se van a atrasar


             Em
Y yo estoy aquí
             Bm
borracho y loco
          A#m-Am
y mi corazon idiota
             Em     B7
siempre brillará


           Em
Y yo te amaré
               Bm
te amare por siempre
            A#m - Am
nena no te peines en la cama
             Em
que los viajantes
             B7
se van a atrasar

OUTRO:
e--------------------------------------8-----------------10-7-|
B-8-7---------8-7-------------------8-----10--------8-10------|
G------9-7-9-------9-7-9------8-10------------7-10------------|
D-------------------------10----------------------------------|
A-------------------------------------------------------------|
E-------------------------------------------------------------|

e---------------------12-|
B--8-7-------------------|
G-------9-7-9---7-7------|
D-------------------9----|
A------------------------|
E------------------------|
Comments