Empyrium - Where At Night The Wood Grouse Plays Chords & Tabs

 

Where At Night The Wood Grouse Plays Chords & Tabs

Empyrium Chords & Tabs

Version: 1 Type: Tab 0 ratings
1 star 2 stars 3 stars 4 stars 5 stars
comments

Where At Night The Wood Grouse Plays Tab

               EMPYRIUM TABS

ARTIST: EMPYRIUM
SONG: WHERE AT NIGHT THE WOOD GROUSE PLAYS
ALBUM: WHERE AT NIGHT THE WOOD GROUSE PLAYS

TAB BY:
NAME: PABLO DAVID PACHECO SOTO
COUNTRY: MEXICO
CITY: VICENTE GUERRERO, DURANGO
E MAIL: SOURCE_OF_PAIN2000@YAHOO.COM.MX

NORMAL TUNING

INTRO

     GTR 1                                                       x3
|--1----------|--1-------------|--3-------1-----------------------|
|--3---5---3--|--3---5-------3-|--3-------3---------5---------3---|
|--2---5---3--|--2---5-------3-|--2-------2---------5---------3--o|
|--0---5---3--|--0---5-------3-|--0-------0---------5---------3--o|
|------3---1--|------3-------1-|--------------------3---------1---|
|-------------|----------------|----------------------------------|
|             |                |                                  |
|    GTR 2    |                |                                  |
|--1---3---6--|--1-------------|--3-1p0-~-------------------------|
|-------------|------5-6-5-6-3-|----------6-----6---5-----5---3-~-|
|-------------|----------------|--------------7---------5---------|
|-------------|----------------|------------7---------5-----------|
|-------------|----------------|----------------------------------|
|-------------|----------------|----------------------------------|


     GTR 2
|--1---0h1-0-1-----------------|--1-0-1-1---------------|--3--3-1-0--------------------------|
|----------------5-6-6p0--5-3--|-----------5-6-6p0--5-3-|------------6-----6---5-----5---3-~-|
|------------------------------|------------------------|----------------7---------5---------|
|------------------------------|------------------------|--------------7---------5-----------|
|------------------------------|------------------------|------------------------------------|
|------------------------------|------------------------|------------------------------------|


|--1---1-------------------|--1---1------------------|--3---1------------------------------|---|
|-------3----5-6-6p0--5-3--|-------3----5-6-6p0--5-3-|-------3-----6-----6---5-----5---3-~-|---|
|--------2-----------------|--------2----------------|--------2--------7---------5---------|---|
|---------0----------------|---------0---------------|---------------7---------5-----------|---|
|--------------------------|-------------------------|-------------------------------------|---|
|--------------------------|-------------------------|-------------------------------------|-0-|


VERSE
[ Tab from: http://www.guitartabs.cc/tabs/e/empyrium/where_at_night_the_wood_grouse_plays_tab.html ]
 GTR 1
|-------------------------------------|-----------------------------------|
|-------------------------------------|-----------------------------------|
|o-----------------------------------o|-----------------------------------|
|o-----3-------3-------2-------0-----o|-----5-------5-------3-------2-----|
|----5---5---5---5---5---5---5---5----|---5---5---5---5---5---5---5---5---|
|--5-------5-------5-------5----------|-5-------5-------5-------5---------|
|                                     |                                   |
|GTR 2                                |                                   |
|-------------------------------------|-----------------------------------|
|------6-------6-------5-------3------|-----8-------8-------6-------5-----|
|o---7---7---7---7---7---7---7---7---o|---7---7---7---7---7---7---7---7---|
|o-7-------7-------7-------7---------o|-7-------7-------7-------7---------|
|-------------------------------------|-----------------------------------|
|-------------------------------------|-----------------------------------|


 GTR 1                                     FLAUTE 1
|-------------------------------------| |-13~-15--13-15-17-|-17--15-13-12-12--10-12-13-13-12-10-|
|-------------------------------------| |------------------|------------------------------------|
|-------------------------------------| |o----------------o|------------------------------------|
|------0-------0-------0-------0------| |o----------------o|------------------------------------|
|----5---5---5---5---5---5---5---5----| |------------------|------------------------------------|
|--5-------5-------5-------5----------| |------------------|------------------------------------|
|                                     | |                                                       |
|GTR 2                                | |  FLAUTE 2                                             |
|-------------------------------------| |-10~-12--10-12-13-|------------------------------------|
|------3-------3-------3-------3------| |------------------|------------------------------------|
|----7---7---7---7---7---7---7---7----| |o----------------o|------------------------------------|
|--7-------7-------7-------7----------| |o----------------o|------------------------------------|
|-------------------------------------| |------------------|------------------------------------|
|-------------------------------------| |------------------|------------------------------------|


INTERLUDE

  GTR 1
|-----------------------------------|---------------------------------|
|------6-------6-------5-------3----|-----8-------8-------6-------5---|
|----7---7---7---7---7---7---7---7-o|---7---7---7---7---7---7---7---7-|
|o-7-------7-------5-------3-------o|-8-------8-------7-------5-------|
|o----------------------------------|---------------------------------|
|-----------------------------------|---------------------------------|
|                                   |                                 |
| GTR 2                             |                                 |
|-----------------------------------|---------------------------------|
|-----------------------------------|---------------------------------|
|-----------------------------------|---------------------------------|
|-----------------------------------|---------------------------------|
|-----------------------------------|---------------------------------|
|-----------------------------------|---------------------------------|


  GTR 1
|-------------------------------------|
|------3-------3-------3-------3------|
|----7---7---7---7---7---7---7---7----|
|--3-------3-------3-------3----------|
|-------------------------------------|
|-------------------------------------|

Visit MetalTabs.com for more metal tablatur
Comments