Empyrium - Ordained To Thee Chords & Tabs

 

Ordained To Thee Chords & Tabs

Empyrium Chords & Tabs

Version: 1 Type: Tab 0 ratings
1 star 2 stars 3 stars 4 stars 5 stars
comments

Ordained To Thee Tab

                           EMPYRIUM TABS
                        Ordain'd To Thee Tab



song:      Ordain'd To Thee
album:     A Wintersunset
artist:    Empyrium
country:   Germany
home page: www.empyrium.de


tab by:    Pablo David Pacheco Soto (Mouse)
country:   Mexico
city:      Vicente Guerrero, Durango
e-mail:    source_of_pain2000@yahoo.com.mx


-Intro-                                                           -Repeat 3 Times-
|-----------------------------------------------------------------------------|
|-----------------------------------------------------------------------------|
|o---------------------------------------------------------------------------o|
|o--4h5p4-2--2-4-5-2--4h5--------5/7-7-7/9-9---------5-5-4-4-----------------o|
|-------------------------3--3-3--------------2--2-2--------------------------|
|-------------------------------------------------------------3--3-3-3-5--5-5-|

                                                                                -Repeat 2 Times-
|---------------------------------------------------------------------------------------|
|---------------------------------------------------------------------------------------|
|o-------------------------9--9-10/12/14-14-14--10-10-10--12-12-12--12-12-12--14-15-15-o|
|o--9h10p9-7--9-10-7--9-10-------------------------------------------------------------o|
|---------------------------------------------------------------------------------------|
|---------------------------------------------------------------------------------------|
[ Tab from: http://www.guitartabs.cc/tabs/e/empyrium/ordained_to_thee_tab.html ]
                                                                 -Repeat 2 Times-
|-----------------------------------------------------------------------------|
|-----------------------------------------------------------------------------|
|o---------------------------------------------------------------------------o|
|o--4h5p4-2--2-4-5-2--4h5--------5/7-7-7/9-9---------5-5-4-4-----------------o|
|-------------------------3--3-3--------------2--2-2--------------------------|
|-------------------------------------------------------------3--3-3-3-5--5-5-|

                                                                                -Repeat 2 Times-
|---------------------------------------------------------------------------------------|
|---------------------------------------------------------------------------------------|
|o-------------------------9--9-10/12/14-14-14--10-10-10--12-12-12--12-12-12--14-15-15-o|
|o--9h10p9-7--9-10-7--9-10-------------------------------------------------------------o|
|---------------------------------------------------------------------------------------|
|---------------------------------------------------------------------------------------|

                                                         ________________________________
                                                        |    1   ||          2           |
|-------------------------------------------------------|--------||----------------------|
|-------------------------------------------------------|--------||----------------------|
|o------------------------------------------------------|-------o||----------------------|
|o-9--9-9--9h10-9-7--7-7--7-9-9h10--10-10--9h10-9--9-9--|-10-10-o||--3---3~----5---5~----|
|-------------------------------------------------------|--------||----------------------| -End
|-------------------------------------------------------|--------||----------------------| Intro-

Visit MetalTabs.com for more metal tablatur
Comments