Emperor - The Loss And Curse Of Reverence Chords & Tabs

 

The Loss And Curse Of Reverence Chords & Tabs

Emperor Chords & Tabs

Version: 1 Type: Tab 0 ratings
1 star 2 stars 3 stars 4 stars 5 stars
comments

The Loss And Curse Of Reverence Tab

Emperor's "Loss and Curse of Reverance"

transcription: Serkan Gunturk ( k-gunturk@physics.tamu.edu )

Riff 1

---------------------------------------------------------------------
---------------------------------------------------------------------
--------------3-2-0-2-3----------------------------------------------
--7-2-2-8-7-2-----------7-2-2-8-5-4-3-2------------------------------
--5-0-3-6-5-0-----------5-0-3-6-6-5-4-3---4--------------------------
------------------------------------------5--------------------------

Riff 2
---------------------------------------------------------------------
---------------------------------------------------------------------
--------4------------------------------------------------------------
------5---5-------4---4-5--------------------------------------------
--3-6-------6-3------------------------------------------------------
----------------2---2------------------------------------------------

riff 3
----------------------------------------------------------------------
----------------------------------------------------------------------
----------------------------------------------------------------------
---5-4-5-7------------------------------------------------------------
------------------0-5-7-3-2-------------------------------------------
-----------0-2-3------------------------------------------------------

riff 4
----------------------------------------------------------------------
----------------------------------------------------------------------
----------------------------------------------------------------------
-----------1----------------------------------------------------------
-----------2-------------------3-2-0----------------------------------
---0-2-3-0---0-2-3-0-2-3-0-3-2----------------------------------------

........
[ Tab from: http://www.guitartabs.cc/tabs/e/emperor/the_loss_and_curse_of_reverence_tab.html ]
riff 5
-------------------------------------10-7-----------------------------
----------6-----------------------10------10-9-6----------------------
--------9---7--------------7-9-10----------------7-5-4----------------
------9-------8-5-----9-10--------------------------------------------
----7-------------8-7-------------------------------------------------
--0-------------------------------------------------------------------

riff 6
----------------------------------------------------------------------
----------------------------------------------------------------------
----------------------------------------------------------------------
---2-1-9-7-4-5---5----------------------------------------------------
---0-2-7-5-2-3-3-3----------------------------------------------------
---------------1------------------------------------------------------

riff 7
----------------------------------------------------------------------
----------------------------------------------------------------------
------0-1-------------------------------------------------------------
----2-----3-----------------------------------------------------------
----------------------------------------------------------------------
----------------------------------------------------------------------

riff 8
----------------------------------------------------------------------
----------------------------------------------------------------------
----2-5-4-5-4-5-6-3---------------------------------------------------
----------------------------------------------------------------------
----------------------------------------------------------------------
----------------------------------------------------------------------

riff 9
----------------------------------------------------------------------
----------------------------------------------------------------------
----------------------------------------------------------------------
----5-----------------------------------------------------------------
----3-3-5-6-4---------------------------------------------------------
------------2---------------------------------------------------------

end.
Comments