Emperor - I Am The Black Wizards Chords & Tabs

 

I Am The Black Wizards Chords & Tabs

Emperor Chords & Tabs

Version: 1 Type: Tab 0 ratings
1 star 2 stars 3 stars 4 stars 5 stars
comments

I Am The Black Wizards Tab

   
			EMPEROR - I Am The Black Wizards

Harsh trem:

 Intro 2x        
  E                D  F
E-----------------------------------------
B-----------------------------------------   Can use a pic slide
G-----------------------------------------   after the E or just
D-2222-2222-2222-----3333-3333-3333---33--   slide.
A-2222-2222-2222-/10-3333-3333-3333-33----
E-0000-0000-0000-/10-1111-1111-1111-------  

 Riff 1   Double-picking
 E
---------------------------------------
---------------------------------------
---9-----------------10-9-7-9----------
-----9---------7-9------------10-9-10--
-7-----10-9-10-----8-------------------
---------------------------------------

 Fill 1
 G
-----3-------4-------5--------------
----4-4-----3-3-----3-3-------------
---5---5---5---5---5---5------------
--5-----5-5-----5-5-----5-----------
-3-------3-------3------------------
-------------------------444333333--

 Riff 2  (Trem)
 B        A#       B
----------------------------------------#------------
----------------------------------------#-Last-time:-
----------------------------------------#------------
----------------------------3-----------#--6-----7---
-22222222-11111111-22222222----2-----4--#----5-------
----------------------------------2-----#------5-----

 Fill 2
 A           A#
----------------------------
----------------------------
-7-777-7-777----------------
-7-777-7-777-8-888------8---
-5-555-5-555-8-888--5---6---
-------------6-666----6-----

 Riff 3
[ Tab from: http://www.guitartabs.cc/tabs/e/emperor/i_am_the_black_wizards_tab.html ]
Guitar 1
 C               A#         C# C D   
-----3-------3-------1-----------------5-------5----------------
------3-------3-------1-----------------5-------5---------------
-5-5---5-5-5---5-3-3---3-3-3-6-5/7-7-7---7-7-7---7--------------
-5-5-----5-5-----3-3-----3-3-6-5/7-7-7-----7-7------8--6-----7--
-3-3-----3-3-----1-1-----1-1-4-3/5-5-5-----5-5------------8-----
----------------------------------------------------------------
Guitar 2
------------------------------------------------------------
------------------------------------------------------------
-5-5555-5-5555-3-3333-3-3-6-57-7-7777-7-7777-7-7777-7-7777--
-5-5555-5-5555-3-3333-3-3-6-57-7-7777-7-7777-7-7777-7-7777--
-3-3333-3-3333-1-1111-1-1-4-35-5-5555-5-5555-5-5555-5-5555--
------------------------------------------------------------

 Riff 4
 B               G    E G G#   B                G  A# F  G#
-------------------------------------------------------------
-----2-------2----------------------2-------2----------------
-444--4--444--4-----------------444--4--444--4---------------
-444---4-444---4-5-5-52-5-6-666-444---4-444---4-5--8--3--6---
-222-----222-----5-5-52-5-6-666-222-----222-----5--8--3--6---
-----------------3-3-30-3-4-444-----------------3--6--1--4---

 Riff 5
 D           E     A#    A           B  D   A  C
----------------------------------------------------
----------------------------------------------------
----------------------------------------------------
----------------------------------------------------
-7-777-7-777-9-999-8-888-7-777-7-777-9--12--7--10---
-5-555-5-555-7-777-6-666-5-555-5-555-7--10--5--8----

 Riff 6 (Solo)

----------------------------------------------------
----------------------------------------------------
-9-10-9-7----7--10-9-10-9--10---7-6---5----------7--
----------6-------------------5-----7----6-5-6-5----
----------------------------------------------------
----------------------------------------------------

---------------------------------------------------
---------------------------------------------------
-9-10-9-----7--10-9-10-9--10---7-6---5----------7--
---------6-------------------5-----7----6-5-6-5----
---------------------------------------------------
---------------------------------------------------

 Guitar 2
------------------
------------------
---3-2------------
-2-3-2-3-6-32323--
-2-1-0-3-6-32323--
-0-----1-4-10101--

Song Order:-
 
Intro  2x
 Riif 1 4x
 Fill 1
 Riff 2 4x
 Riff 1 4x
 Riff 2 4x
 Fill 2
 Riff 3 5x
 Riff 4 2x
 Riff 5 2x
 Riff 3 4x
 Riff 6 5x
 Riff 1 8x

This was tabbed by the meastro Al Magal.
Comments