Eminem - Without Me Chords & Tabs

 

Without Me Chords & Tabs

Eminem Chords & Tabs

Version: 7 Type: Tab 0 ratings
1 star 2 stars 3 stars 4 stars 5 stars
comments

Without Me Tab

Artist:Eminem
Title: Without Me
Album: The Eminem Show
Transcribed by: Rishesh Singh
Email: Sheesh@attbi.com

Notes: - Rap Song are always fun to play on guitar
       - Have Fun with this One
       - Standard Tuning


Intro [obie trice...]

-6--6-------------------------------------------------------------------------
-8--8-------------------------------------------------------------------------
-7--7-------------------------------------------------------------------------
-5--5---5-5--3-3--2-2-0-0-----------------------------------------------------
------------------------------------------------------------------------------
------------------------------------------------------------------------------
                                                                              
[ Tab from: http://www.guitartabs.cc/tabs/e/eminem/without_me_tab_ver_7.html ]
[bass part for guitar pt. 1]         [other thing]
    
---------------------------------|-|------------------------------------------
---------------------------------|-|------------------------------------------
---------------------------------|-|------------------------------------------
---------------------------------|-|--5-5-5-5-5-5-----------------------------
---5-6-5----5-6-5----5-6-5-------|-|---------------5-6-5----------------------
-3--------3--------3-------------|-|------------------------------------------
              

                                                                
[Main Riff]

------------------------------------------------------------------------------
------------------------------------------------------------------------------
------------------------------------------------------------------------------
----8-7-5------------3--------------------------------------------------------
-5--------5----5-3-5---5---5-3-5-3-1--1-0-------------------------------------
------------------------------------------1-3---------------------------------
Comments