Eminem - Under The Influence Chords & Tabs

 

Under The Influence Chords & Tabs

Eminem Chords & Tabs

Version: 4 Type: Tab 0 ratings
1 star 2 stars 3 stars 4 stars 5 stars
comments

Under The Influence Tab

Standard Tuning

e]-------------------------
B]-------------------------
G]-------------------------
D]-------------------------
A]--0-5-0-5-7-8-7-5-0-----0
E]--------------------5-5--
[ Tab from: http://www.guitartabs.cc/tabs/e/eminem/under_the_influence_tab_ver_4.html ]
e]-------------------------
B]-------------------------
G]-------------------------
D]------------------7-8-8-7
A]--0-5-0-5-7-8-7-5--------
E]-------------------------

That's it... Easy.

Tabbed By Dylan Lockman And Jacob Bobongie
Comments