Eminem - Under The Influence Chords & Tabs

 

Under The Influence Chords & Tabs

Eminem Chords & Tabs

Version: 2 Type: Bass Tab 0 ratings
1 star 2 stars 3 stars 4 stars 5 stars
comments

Under The Influence Bass Tab

Under the Influence
by Eminem and D12
Marshal Mathers LP

standard 4 string tuning

G|----------------------|
D|----------------------|
A|--6-6-8-9-8----------8|
E|---6---------7-8--8-7-|

G|----------------------|
D|-------------8-9--8-9-|
A|--6-6-8-9-8-6--------8|
E|---6------------------|
[ Tab from: http://www.guitartabs.cc/tabs/e/eminem/under_the_influence_btab_ver_2.html ]
G|----------------------|
D|----------------------|
A|--6-6-8-9-8----------8|
E|---6---------7-8--8-7-|

G|----------------------|
D|-------------8-9--8-9-|
A|--6-6-8-9-8-6--------8|
E|---6------------------|

just do that through the whole song
except the part where the music stops in bizzares verse
and thats pretty much it
this is 100% correct.. please rate
Comments