Eminem - The Way I Am Chords & Tabs

 

The Way I Am Chords & Tabs

Eminem Chords & Tabs

Version: 3 Type: Tab 0 ratings
1 star 2 stars 3 stars 4 stars 5 stars
comments

The Way I Am Tab

   
Song: "the way I am"
Artist: Eminem
Album: Marshall Mathers LP
tabbed by:DJ

 

Gm                        Cm
----------------------------------------------------
---------3--------3--------------4--------4---------
------3--------3--------------5--------4------------
---5--------5--------------5--------5---------------
----------------------------------------------------
----------------------------------------------------
[ Tab from: http://www.guitartabs.cc/tabs/e/eminem/the_way_i_am_tab_ver_3.html ]
 Am                         Bm
---------------------------------------------------
-------1--------1---------------3--------3---------
----2--------2---------------4--------4------------
-2--------2---------------4--------4---------------
---------------------------------------------------
---------------------------------------------------

  Em                      Am
---------------------------------------------------
---------0---------0-----------1--------1----------
------0---------0-----------2--------2-------------
---2---------2-----------2--------2----------------
---------------------------------------------------
---------------------------------------------------

  Em            Am         Em
--------------------------------------------------- 
---------------------------------------------------
-------0------------1-----------0------------------
----0------------2-----------0---------------------
-2------------2-----------2------------------------
---------------------------------------------------
Comments