Eminem - The Way I Am Chords & Tabs

 

The Way I Am Chords & Tabs

Eminem Chords & Tabs

Version: 5 Type: Bass Tab 0 ratings
1 star 2 stars 3 stars 4 stars 5 stars
comments

The Way I Am Bass Tab

Tuning: standard 4-string

version 1:

G|--------------------------------------------------------------------------|
D|------------------0-------------------------------------------------------|
A|--------0--2---2----3--0------3--0---------0------------------------------|
E|----(0)--------------------0---------4--0---------------------------------|


version 2:
[ Tab from: http://www.guitartabs.cc/tabs/e/eminem/the_way_i_am_btab_ver_5.html ]
G|--------------------------------------------------------------------------|
D|--------------------------------------------------------------------------|
A|-----0--2---2--5-3--0------3----------------------------------------------|
E|------------------------0-----5---4--0--5---------------------------------|



these two tabs are the same. just whatever fingering's easier for you.
this is repeated through the whole song. have fun, it's an easy piece!
Comments