Eminem - Superman Chords & Tabs

 

Superman Chords & Tabs

Eminem Chords & Tabs

Version: 6 Type: Tab 0 ratings
1 star 2 stars 3 stars 4 stars 5 stars
comments

Superman Tab

This is the absolute right tabs for super man all u others suck
this is right aiiiiiiiiiiiii

e|--------------------------------|
B|--------------------------------|
G|-----2-------0-------0----------|
D|----2-------2-------0-------2---|
A|---0-----0-3-------2-------2----|
E|--------------------------0-----|
[ Tab from: http://www.guitartabs.cc/tabs/e/eminem/superman_tab_ver_6.html ]
e|-----------3----3-7-------------|
B|----------5----5----------------|
G|-----2---5----4-----------------|
D|----2---------------------------|
A|---0----------------------------|
E|--------------------------------|

dATS DA SONG IF YOU GOT NE PROBLEMS WITH IT EMAIL ME

mijid_the_metallica_boy@hotmail.com

Happy Playin
Comments