Eminem - Superman Chords & Tabs

 

Superman Chords & Tabs

Eminem Chords & Tabs

Version: 5 Type: Tab 0 ratings
1 star 2 stars 3 stars 4 stars 5 stars
comments

Superman Tab

This is one of the bass lines in Superman that is repeated at various times through the song.
[ Tab from: http://www.guitartabs.cc/tabs/e/eminem/superman_tab_ver_5.html ]
|-----0--5------------0---------0-----------0
|---------------0--------8---0-----8-----0---
|------------------5-------------------------
|--7---------7-------------------------------
|-------------------------------------7------
|--------------------------------------------

|-----0--5------------0---------0-----7------
|---------------0--------8---0-----8---------
|------------------5-------------------------
|--7---------7-------------------------------
|--------------------------------------------
|--------------------------------------------
Comments