Eminem - Superman Chords & Tabs

 

Superman Chords & Tabs

Eminem Chords & Tabs

Version: 4 Type: Tab 0 ratings
1 star 2 stars 3 stars 4 stars 5 stars
comments

Superman Tab

Eminem
Superman
Tabbed by Kjetil

Intro:
|--------------------------------------------
|--------------------------------------------
|--------2--------------0--------0-----------
|-----2--------------2--------0-----------2--
|--0--------0--2--3--------2--------0--3-----
|--------------------------------------------

[ Tab from: http://www.guitartabs.cc/tabs/e/eminem/superman_tab_ver_4.html ]
|--------------------3--------3---7-----------
|-----------------5--------5------------------
|---------2----5--------4---------------------
|------2--------------------------------------
|---0-----------------------------------------
|---------------------------------------------



Main riff:
|---0--2--3--5--7--5--3--2--0~-------
|------------------------------------
|------------------------------------
|------------------------------------
|------------------------------------
|------------------------------------


|---0--2--3--5--7--5--10--8--7-8-7~--
|------------------------------------
|------------------------------------
|------------------------------------
|------------------------------------
|------------------------------------

That's the intro and the main riff in Eminem Superman.
Comments