Eminem - Superman Chords & Tabs

 

Superman Chords & Tabs

Eminem Chords & Tabs

Version: 1 Type: Tab 0 ratings
1 star 2 stars 3 stars 4 stars 5 stars
comments

Superman Tab

This is elemeno p, the smooth pimpin norwegian,
baddest motherfuckin rap artist in the region.

this is my first tab attempt, but it's perfect.
play along to the cd and alternate parts 1 & 2.
it's pretty tripped out but very easy.

comments or questions? hit me on the email
                {juliaspleezer@hotmail.com}
part one
e------------------------------------0-------------------------------
a-0--------0--2--3---------2------------2----------------------------
d---2---------------2---------0------------2-------------------------
g-----2----------------0---------0-----------------------------------
b--------------------------------------------------------------------
e--------------------------------------------------------------------
[ Tab from: http://www.guitartabs.cc/tabs/e/eminem/superman_tab.html ]
e--------------------------------------------------------------------
a-0------------------------------------------------------------------
d---2--------10------------9-----------------------------------------
g-----2----------9------------8--------------------------------------
b--------------------8-----------7-----12----------------------------
e--------------------------------------------------------------------

part two

e--------------------------------------------------------------------
a--------------------------------------------------------------------
d--------------------------------------------------------------------
g--------------------------------------------------------------------
b--------------------------------------------------------------------
e-0--2--3--5--7--5--3--2--0-----0--2--3--5--7--5--10--8--7-----------
Comments