Eminem - Superman Revised Chords & Tabs

 

Superman Revised Chords & Tabs

Eminem Chords & Tabs

Version: 1 Type: Tab 0 ratings
1 star 2 stars 3 stars 4 stars 5 stars
comments

Superman Revised Tab

E--------------------------------------------
b--------------------------------------------
g--------2-------------0-------0-------------
d------2------------2-------0----------2-----
a--0-------0--2--3--------2----------2-------
e---------------------------------0----------

[ Tab from: http://www.guitartabs.cc/tabs/e/eminem/superman_revised_tab.html ]
--------------------------7------
--------------------8--8--8------
--------2---------9---7---9------
------2--------10----9-----------
---0-----------------------------
---------------------------------

This is a revised version of Superman. I don't like rap, however 
the riff is very catchy. Any questions: tommy_d16@hotmail.com
Comments