Eminem - Stan Chords & Tabs

 

Stan Chords & Tabs

Eminem Chords & Tabs

Version: 6 Type: Bass Tab 0 ratings
1 star 2 stars 3 stars 4 stars 5 stars
comments

Stan Bass Tab

   
Song: Stan
Artist: Eminem
Tabbed by: Derek5272

G|-----------------------------------------------------
D|---2-2-4---------2-2-4---------2-2-4---------2-2-3-2-	*12
A|---------2-1-----------2-1-----------2-1-------------
E|-4-----------4-4-----------4-4-----------4-4---------
[ Tab from: http://www.guitartabs.cc/tabs/e/eminem/stan_btab_ver_6.html ]
G|---------------------------------
D|-----2-2-3-3-2-2-----2-2-3-3-2-2-
A|---------------------------------
E|-4-4-------------4-4-------------

G|-----------------------------------------------------
D|---2-2-4---------2-2-4---------2-2-4---------2-2-3-2-	*4
A|---------2-1-----------2-1-----------2-1-------------
E|-4-----------4-4-----------4-4-----------4-4---------

G|---
D|---
A|---
E|-4-

That's it! Simple song.
Comments