Eminem - Sing For The Moment Chords & Tabs

 

Sing For The Moment Chords & Tabs

Eminem Chords & Tabs

Version: 3 Type: Tab 0 ratings
1 star 2 stars 3 stars 4 stars 5 stars
comments

Sing For The Moment Tab

********************************************************************************
                         Sing For The Moment By Eminem
********************************************************************************
 
Great Song, Great Artist, Awesome Tab. This is 100% correct. 
 
            *PLAY BEFORE YOU RATE, PLEASE*


TAbbed by The_D (A.K.A. DRAKE LANS)

|--5-------5-------4-------4-------5-------5-------4-------4-----|
|--7-------7-------5-------5-------4-------4-------3-------3-----|
|------6-------6-------6-------6-------6-------6-------6-------6-|
|----------------------------------------------------------------|
|----------------------------------------------------------------|
|----------------------------------------------------------------|

[ Tab from: http://www.guitartabs.cc/tabs/e/eminem/sing_for_the_moment_tab_ver_3.html ]
|--5-------5-------7-------7-------9-------9-------9~~~----------|
|--7-------7-------7-------7-------7-------7-------7~~~----------|
|------6-------6-------6-------6-------6-------6-----------------|
|----------------------------------------------------------------|
|----------------------------------------------------------------|
|----------------------------------------------------------------|

|--5-------5-------4-------4-------5-------5-------4-------4-----|
|--7-------7-------5-------5-------4-------4-------3-------3-----|
|------6-------6-------6-------6-------6-------6-------6-------6-|
|----------------------------------------------------------------|
|----------------------------------------------------------------|
|----------------------------------------------------------------|




|--5-------5-------7-------7-------9-------9-------7---5---7---9--------9-----|
|--7-------7-------7-------7-------7-------7-------7---7---7---10-------10----|
|------6-------6-------6-------6-------6-------6--------------------8--------8|
|-----------------------------------------------------------------------------|
|-----------------------------------------------------------------------------|
|-----------------------------------------------------------------------------|


|--9---7---7--------------------|
|--9---7---7-----7-6-7-6-7-6-7-6|
|-------------------------------|
|-------------------------------|
|-------------------------------|
|-------------------------------| 


Comments