Eminem - Sing For The Moment Chords & Tabs

 

Sing For The Moment Chords & Tabs

Eminem Chords & Tabs

Version: 2 Type: Bass Tab 0 ratings
1 star 2 stars 3 stars 4 stars 5 stars
comments

Sing For The Moment Bass Tab

   
Title: Sing For The Moment
Artist : Eminem
Album : The Eminem Show

Tab: Basswizard (Metallika5@hotmail.com)
Normal 5-string Tuning B,E,A,D,G
H:Hammer on
/:Slide Up
\:Slide Down

Intro

G----------------------------------------------------------------
D----------------15/17-15H17-18-17-15-15H17----------------3H5-3-
A------------15----------------------------15--------------------
E--1--/--13------------------------------------13\---------------
B-1--------------------------------------------------------------

Verse

G-----------------------------
D-----------------------------
A-----------------------------
E----------------1--3-4--6--8-
B--6--4--2--4-----------------   

Chorus
[ Tab from: http://www.guitartabs.cc/tabs/e/eminem/sing_for_the_moment_btab_ver_2.html ]
G-----------------------------------------------------------
D-----------------------------------------------------------
A-----------------------------------------------------------
E----------------1--3--4--6--8-9-8-9-8-9-8-9-8-9-8-9-8-9-8-9
B--6--4--2--4-----------------------------------------------  

For The Solo Just Play the verse once and then the chorus


4-String Tab(Drop 2 Steps to C)(C,A,D,G)

Intro

G--------------------------------------------------------------
D---------------15/17-15H17-18-17-15-15H17---------------3H5-3-
A-----------13-----------------------------13------------------
C-0-5-/--15------------------------------------15\-------------

Verse

G-------------------------------
D-------------------------------
A-----------------------1--3----
C--5--3--1--3--5--7--8----------

Chorus

G-----------------------------------------------------------
D-----------------------------------------------------------
A-----------------------1--3-4-3-4-3-4-3-4-3-4-3-4-3-4-3-4--
C--5--3--1--3--5--7--8--------------------------------------

For The Solo Just Play the verse once and then the Chorus

Any questions or corrections, E-mail me
Comments