Eminem - Sing For The Moment Chords & Tabs

 

Sing For The Moment Chords & Tabs

Eminem Chords & Tabs

Version: 1 Type: Bass Tab 0 ratings
1 star 2 stars 3 stars 4 stars 5 stars
comments

Sing For The Moment Bass Tab

__________________________________________________________________________
Standard Tuning for Bass Guitar ( E, A, D, G )						    
bigbassist13 rules! Written and Performed by Eminem!

INTRO   ( this is quite fast! listen to track for speed!
          you may hammer on / off if you wish! )

G ----------------------------------------------------------
D ----------------13-15-13-15-17-15-17-18-17-15-17-15/ 3----
A ---------8------------------------------------------------
E ----------------------------------------------------------

VERSE x 4

G ----------------------------------------------------------
D ----------------------------------------------------------
A ----8------6------4------6------8------10------11------13-
E ----------------------------------------------------------

CHORUS x 1
[ Tab from: http://www.guitartabs.cc/tabs/e/eminem/sing_for_the_moment_btab.html ]
G ----------------------------------------------------------
D ----------------------------------------------------------
A ----8------6------4------6------8------10------11------13-
E ----------------------------------------------------------

BRIDGE

G ----------------------------------------------------------
D ----------------------------------------------------------
A -8h 11--8h 11--8h 11--8h 11--8h 11--8h 11--8h 11--8h 11---
E ----------------------------------------------------------

( after 2nd bridge guitar solo plus woman sings! stay
  quiet! )

ORDER OF SONG!

INTRO x 1
VERSE x 4
CHORUS x 1
BRIDGE x 1
VERSE x 6
CHORUS x 1
VERSE x 6
CHORUS x 1
BRIDGE x 1
VERSE x 2 (play with guitar solo! Also slight change! Add in small part of bridge 
and you have it! )

This has been my first tab! I am bigbassist13 and ENJOY!
If you have any corrections send them to bigbassist13@hotmail.com
____________________________________________________________
Comments