Eminem - Mosh Chords & Tabs

 

Mosh Chords & Tabs

Eminem Chords & Tabs

Version: 4 Type: Tab 0 ratings
1 star 2 stars 3 stars 4 stars 5 stars
comments

Mosh Tab

   
-------------------------------------------------------------------------------
			     Mosh (Intro) - Eminem
-------------------------------------------------------------------------------
Artist: Eminem
Song Title: Mosh (Intro)
Album: Encore
Tabbed by: Ghetto Clown

Tuning: Standard (EADGBe)
[ Tab from: http://www.guitartabs.cc/tabs/e/eminem/mosh_tab_ver_4.html ]
Just play this riff throughout the song. Listen to album for timing.
                                                                                
e|---2-----------------------|----------|--4-----------------------|----------|
B|------------4-----4--------|----------|-----------4-----4--------|----------|
G|---------------6-----------|----------|--------------6-----------|----------|
D|---------------------------|----------|--------------------------|----------|
A|---------------------------|----------|--------------------------|----------|
E|---------------------------|----------|--------------------------|----------|


                                                                            
e|--7/-6------4-----4--------|----------|--2-----------------------|-----------|
B|---------------7-----------|----------|-----------4-----4--------|-----------|
G|---------------------------|----------|--------------6-----------|-----------|
D|---------------------------|----------|--------------------------|-----------|
A|---------------------------|----------|--------------------------|-----------|
E|---------------------------|----------|--------------------------|-----------|



| /  slide up
| \  slide down
| h  hammer-on
| p  pull-off
| ~  vibrato
| +  harmonic
| x  Mute note
===============================================================================
Comments