Eminem - Mockingbird Chords & Tabs

 

Mockingbird Chords & Tabs

Eminem Chords & Tabs

Version: 1 Type: Tab 0 ratings
1 star 2 stars 3 stars 4 stars 5 stars
comments

Mockingbird Tab

--------------------------
Eminem

Song: Mockingbird
--------------------------

I Think This Might Be It      REPEAT GOH AHH THROUGH OUT THE SONG
[ Tab from: http://www.guitartabs.cc/tabs/e/eminem/mockingbird_tab.html ]
E-----------------------------------------------------------------|
B-----------------------------------------------------------------|
G----12-12 12 --14-12--11-11------11--9--9------------------------|
D--9---------------------------------------9---7---------7----9---|
A------------------------------------------------10--10-----------|
E-----------------------------------------------------------------|


E-------------------------------------------------------------------|
B-------------------------------------------------------------------|
G----12-12 12 --14-12--11-11------11--9--9--------------------------|
D--9---------------------------------------9---7---------7----------|
A------------------------------------------------10--10----10--9--7-|
E-------------------------------------------------------------------|

This Is My First Tab Giyah Nii Nibash;):P...Chisasibi ROCKS!
Comments