Eminem - Marshall Mathers Chords & Tabs

 

Marshall Mathers Chords & Tabs

Eminem Chords & Tabs

Version: 8 Type: Tab 0 ratings
1 star 2 stars 3 stars 4 stars 5 stars
comments

Marshall Mathers Tab

   
Tunning : Standard
Tabbed by : Abd el rahman Moustafa
Email : DisembowelArena@Hotmail.com


      Em          Am            B7            Em
|-----------|-----------|----------------|-----------|
|-----------|--------1--|--------0-------|-----------|
|--------0--|------0----|------2---------|--------0--|
|----2-4----|----2------|----1-----------|----2-4----|
|--2--------|--0--------|--2----------(2)|--2--------|
|-----------|-----------|----------(0)---|-----------|




      Em         Am               B7              Em
|-----------|-----------|--------------------|-----------|
|-----------|--------1--|--------0-----------|-----------|
|--------0--|------0----|------2-------------|--------0--|
|----2-4----|----2------|----1---------------|----2-4----|
|--2--------|--0--------|--2----------(2h3p2)|--2--------|
|-----------|-----------|----------(0)-------|-----------|




     Em          Am            B7          Em
|-----------|-----------|-------------|-----------|
|-----------|--------1--|--------0----|-----------|
|--------0--|------0----|------2------|--------0--|
|----2-4----|----2------|----1--------|----2-4----|
|--2--------|--0--------|--2----------|--2--------|
|-----------|-----------|-------------|-----------|





     Em          Am            B7            Em
|-----------|-----------|----------------|-----------|
|-----------|--------1--|--------0-------|-----------|
|--------0--|------0----|------2---------|--------0--|
|----2-4----|----2------|----1-----------|----2-4----|
|--2--------|--0--------|--2----------(2)|--2--------|
|-----------|-----------|----------(0)---|-----------|





      Em         Am               B7              Em
|-----------|-----------|--------------------|-----------|
|-----------|--------1--|--------0-----------|-----------|
|--------0--|------0----|------2-------------|--------0--|
|----2-4----|----2------|----1---------------|----2-4----|
|--2--------|--0--------|--2----------(2h3p2)|--2--------|
|-----------|-----------|----------(0)-------|-----------|
|           |           |                    |           |
|    Em     |    Am     |         B7         |    Em     |
|--0--------|--0--------|--2-----------------|--0--------|
|--0--------|--1--------|--0-----------------|--0--------|
|--0--------|--2--------|--2-----------------|--0--------|
|--2--------|--2--------|--1-----------------|--2--------|
|--2--------|--0--------|--2-----------------|--2--------|
|-----------|-----------|--------------------|-----------|



      Em         Am               B7              Em
|-----------|-----------|--------------------|-----------|
|-----------|--------1--|--------0-----------|-----------|
|--------0--|------0----|------2-------------|--------0--|
|----2-4----|----2------|----1---------------|----2-4----|
|--2--------|--0--------|--2----------(2h3p2)|--2--------|
|-----------|-----------|----------(0)-------|-----------|
|           |           |                    |           |
|    Em     |    Am     |         B7         |    Em     |
|--0--------|--0--------|--2-----------------|--0--------|
|--0--------|--1--------|--0-----------------|--0--------|
|--0--------|--2--------|--2-----------------|--0--------|
|--2--------|--2--------|--1-----------------|--2--------|
|--2--------|--0--------|--2-----------------|--2--------|
|-----------|-----------|--------------------|-----------|



      Em         Am               B7              Em
|-----------|-----------|--------------------|-----------|
|-----------|--------1--|--------0-----------|-----------|
|--------0--|------0----|------2-------------|--------0--|
|----2-4----|----2------|----1---------------|----2-4----|
|--2--------|--0--------|--2----------(2h3p2)|--2--------|
|-----------|-----------|----------(0)-------|-----------|
|           |           |                    |           |
|    Em     |    Am     |         B7         |    Em     |
|--0--------|--0--------|--2-----------------|--0--------|
|--0--------|--1--------|--0-----------------|--0--------|
|--0--------|--2--------|--2-----------------|--0--------|
|--2--------|--2--------|--1-----------------|--2--------|
|--2--------|--0--------|--2-----------------|--2--------|
|-----------|-----------|--------------------|-----------|




      Em         Am               B7              Em
|-----------|-----------|--------------------|-----------|
|-----------|--------1--|--------0-----------|-----------|
|--------0--|------0----|------2-------------|--------0--|
|----2-4----|----2------|----1---------------|----2-4----|
|--2--------|--0--------|--2----------(2h3p2)|--2--------|
|-----------|-----------|----------(0)-------|-----------|
|           |           |                    |           |
|    Em     |    Am     |         B7         |    Em     |
|--0--------|--0--------|--2-----------------|--0--------|
|--0--------|--1--------|--0-----------------|--0--------|
|--0--------|--2--------|--2-----------------|--0--------|
|--2--------|--2--------|--1-----------------|--2--------|
|--2--------|--0--------|--2-----------------|--2--------|
|-----------|-----------|--------------------|-----------|




      Em         Am               B7              Em
|-----------|-----------|--------------------|-----------|
|-----------|--------1--|--------0-----------|-----------|
|--------0--|------0----|------2-------------|--------0--|
|----2-4----|----2------|----1---------------|----2-4----|
|--2--------|--0--------|--2----------(2h3p2)|--2--------|
|-----------|-----------|----------(0)-------|-----------|
|           |           |                    |           |
|    Em     |    Am     |         B7         |    Em     |
|--0--------|--0--------|--2-----------------|--0--------|
|--0--------|--1--------|--0-----------------|--0--------|
|--0--------|--2--------|--2-----------------|--0--------|
|--2--------|--2--------|--1-----------------|--2--------|
|--2--------|--0--------|--2-----------------|--2--------|
|-----------|-----------|--------------------|-----------|





      Em         Am               B7              Em
|-----------|-----------|--------------------|-----------|
|-----------|--------1--|--------0-----------|-----------|
|--------0--|------0----|------2-------------|--------0--|
|----2-4----|----2------|----1---------------|----2-4----|
|--2--------|--0--------|--2----------(2h3p2)|--2--------|
|-----------|-----------|----------(0)-------|-----------|
|           |           |                    |           |
|    Em     |    Am     |         B7         |    Em     |
|--0--------|--0--------|--2-----------------|--0--------|
|--0--------|--1--------|--0-----------------|--0--------|
|--0--------|--2--------|--2-----------------|--0--------|
|--2--------|--2--------|--1-----------------|--2--------|
|--2--------|--0--------|--2-----------------|--2--------|
|-----------|-----------|--------------------|-----------|




      Em         Am               B7              Em
|-----------|-----------|--------------------|-----------|
|-----------|--------1--|--------0-----------|-----------|
|--------0--|------0----|------2-------------|--------0--|
|----2-4----|----2------|----1---------------|----2-4----|
|--2--------|--0--------|--2----------(2h3p2)|--2--------|
|-----------|-----------|----------(0)-------|-----------|




      Em         Am               B7              Em
|-----------|-----------|--------------------|-----------|
|-----------|--------1--|--------0-----------|-----------|
|--------0--|------0----|------2-------------|--------0--|
|----2-4----|----2------|----1---------------|----2-4----|
|--2--------|--0--------|--2----------(2h3p2)|--2--------|
|-----------|-----------|----------(0)-------|-----------|





      Em         Am               B7              Em
|-----------|-----------|--------------------|-----------|
|-----------|--------1--|--------0-----------|-----------|
|--------0--|------0----|------2-------------|--------0--|
|----2-4----|----2------|----1---------------|----2-4----|
|--2--------|--0--------|--2----------(2h3p2)|--2--------|
|-----------|-----------|----------(0)-------|-----------|




[ Tab from: http://www.guitartabs.cc/tabs/e/eminem/marshall_mathers_tab_ver_8.html ]
      Em         Am               B7              Em
|-----------|-----------|--------------------|-----------|
|-----------|--------1--|--------0-----------|-----------|
|--------0--|------0----|------2-------------|--------0--|
|----2-4----|----2------|----1---------------|----2-4----|
|--2--------|--0--------|--2----------(2h3p2)|--2--------|
|-----------|-----------|----------(0)-------|-----------|





      Em         Am               B7              Em
|-----------|-----------|--------------------|-----------|
|-----------|--------1--|--------0-----------|-----------|
|--------0--|------0----|------2-------------|--------0--|
|----2-4----|----2------|----1---------------|----2-4----|
|--2--------|--0--------|--2----------(2h3p2)|--2--------|
|-----------|-----------|----------(0)-------|-----------|





      Em         Am               B7              Em
|-----------|-----------|--------------------|-----------|
|-----------|--------1--|--------0-----------|-----------|
|--------0--|------0----|------2-------------|--------0--|
|----2-4----|----2------|----1---------------|----2-4----|
|--2--------|--0--------|--2----------(2h3p2)|--2--------|
|-----------|-----------|----------(0)-------|-----------|





      Em         Am               B7              Em
|-----------|-----------|--------------------|-----------|
|-----------|--------1--|--------0-----------|-----------|
|--------0--|------0----|------2-------------|--------0--|
|----2-4----|----2------|----1---------------|----2-4----|
|--2--------|--0--------|--2----------(2h3p2)|--2--------|
|-----------|-----------|----------(0)-------|-----------|




      Em         Am               B7              Em
|-----------|-----------|--------------------|-----------|
|-----------|--------1--|--------0-----------|-----------|
|--------0--|------0----|------2-------------|--------0--|
|----2-4----|----2------|----1---------------|----2-4----|
|--2--------|--0--------|--2----------(2h3p2)|--2--------|
|-----------|-----------|----------(0)-------|-----------|



      Em         Am               B7              Em
|-----------|-----------|--------------------|-----------|
|-----------|--------1--|--------0-----------|-----------|
|--------0--|------0----|------2-------------|--------0--|
|----2-4----|----2------|----1---------------|----2-4----|
|--2--------|--0--------|--2----------(2h3p2)|--2--------|
|-----------|-----------|----------(0)-------|-----------|
|           |           |                    |           |
|    Em     |    Am     |         B7         |    Em     |
|--0--------|--0--------|--2-----------------|--0--------|
|--0--------|--1--------|--0-----------------|--0--------|
|--0--------|--2--------|--2-----------------|--0--------|
|--2--------|--2--------|--1-----------------|--2--------|
|--2--------|--0--------|--2-----------------|--2--------|
|-----------|-----------|--------------------|-----------|




      Em         Am               B7              Em
|-----------|-----------|--------------------|-----------|
|-----------|--------1--|--------0-----------|-----------|
|--------0--|------0----|------2-------------|--------0--|
|----2-4----|----2------|----1---------------|----2-4----|
|--2--------|--0--------|--2----------(2h3p2)|--2--------|
|-----------|-----------|----------(0)-------|-----------|





      Em         Am               B7              Em
|-----------|-----------|--------------------|-----------|
|-----------|--------1--|--------0-----------|-----------|
|--------0--|------0----|------2-------------|--------0--|
|----2-4----|----2------|----1---------------|----2-4----|
|--2--------|--0--------|--2----------(2h3p2)|--2--------|
|-----------|-----------|----------(0)-------|-----------|





      Em         Am               B7              Em
|-----------|-----------|--------------------|-----------|
|-----------|--------1--|--------0-----------|-----------|
|--------0--|------0----|------2-------------|--------0--|
|----2-4----|----2------|----1---------------|----2-4----|
|--2--------|--0--------|--2----------(2h3p2)|--2--------|
|-----------|-----------|----------(0)-------|-----------|





      Em         Am               B7              Em
|-----------|-----------|--------------------|-----------|
|-----------|--------1--|--------0-----------|-----------|
|--------0--|------0----|------2-------------|--------0--|
|----2-4----|----2------|----1---------------|----2-4----|
|--2--------|--0--------|--2----------(2h3p2)|--2--------|
|-----------|-----------|----------(0)-------|-----------|





      Em         Am               B7              Em
|-----------|-----------|--------------------|-----------|
|-----------|--------1--|--------0-----------|-----------|
|--------0--|------0----|------2-------------|--------0--|
|----2-4----|----2------|----1---------------|----2-4----|
|--2--------|--0--------|--2----------(2h3p2)|--2--------|
|-----------|-----------|----------(0)-------|-----------|





      Em              Am           B7                 Em
|----------------|-----------|-------------|---------------------|
|----------------|--------1--|--------0----|---------------------|
|--------0-------|------0----|------2------|--------0------------|
|----2-4---------|----2------|----1--------|----2-4--------------|
|--2-------------|--0--------|--2----------|--2------------------|
|----------------|-----------|-------------|---------------------|
|                                                                |
|                                                                |
|----------------|-----------------------------------------------|
|----------------|-----------------------------------------------|
|----------------|-----------------------------------------------|
|---------(2-4-5)|---------(1/2--1-1-2-4-2-1-4-2-----------------|
|----------------|-----------------------------------------------|
|----------------|------------------------------0-2-3-3/5-3-2-0--|




      Em              Am           B7                 Em
|----------------|-----------|-------------|---------------------|
|----------------|--------1--|--------0----|---------------------|
|--------0-------|------0----|------2------|--------0------------|
|----2-4---------|----2------|----1--------|----2-4--------------|
|--2-------------|--0--------|--2----------|--2------------------|
|----------------|-----------|-------------|---------------------|




      Em         Am               B7              Em
|-----------|-----------|--------------------|-----------|
|-----------|--------1--|--------0-----------|-----------|
|--------0--|------0----|------2-------------|--------0--|
|----2-4----|----2------|----1---------------|----2-4----|
|--2--------|--0--------|--2----------(2h3p2)|--2--------|
|-----------|-----------|----------(0)-------|-----------|




     Em          Am            B7          Em
|-----------|-----------|-------------|-----------|
|-----------|--------1--|--------0----|-----------|
|--------0--|------0----|------2------|--------0--|
|----2-4----|----2------|----1--------|----2-4----|
|--2--------|--0--------|--2----------|--2--------|
|-----------|-----------|-------------|-----------|




      Em         Am               B7              Em
|-----------|-----------|--------------------|-----------|
|-----------|--------1--|--------0-----------|-----------|
|--------0--|------0----|------2-------------|--------0--|
|----2-4----|----2------|----1---------------|----2-4----|
|--2--------|--0--------|--2----------(2h3p2)|--2--------|
|-----------|-----------|----------(0)-------|-----------|




     Em          Am            B7          Em
|-----------|-----------|-------------|-----------|
|-----------|--------1--|--------0----|-----------|
|--------0--|------0----|------2------|--------0--|
|----2-4----|----2------|----1--------|----2-4----|
|--2--------|--0--------|--2----------|--2--------|
|-----------|-----------|-------------|-----------|



======
=Solo=
======

|---------------------------^-----------------------------------------^----------------------|
|--------7-8-5~~---(10b)-13---7/10-8-7-5~~---------7-8-5~~---(10b)-13---10-12-13-12-10-------|
|--4/9~~-------------------------------------4/9~~-------------------------------------8-9~~~|
|--------------------------------------------------------------------------------------------|
|--------------------------------------------------------------------------------------------|
|--------------------------------------------------------------------------------------------|
Comments