Eminem - Marshall Mathers Chords & Tabs

 

Marshall Mathers Chords & Tabs

Eminem Chords & Tabs

Version: 3 Type: Tab 0 ratings
1 star 2 stars 3 stars 4 stars 5 stars
comments

Marshall Mathers Tab

X------------------------------------------------|
X-----------------1---------2--------------------|
X--------0------0---------3------------0---------|
X------2------2---------2------------2-----------|
X----2------0---------0------------2-------------|
X--0-----------------------------0---------------|

[ Tab from: http://www.guitartabs.cc/tabs/e/eminem/marshall_mathers_tab_ver_3.html ]
X----------------------------------------------------|
X-------------7--8---------10--10-8-7-8--------------|
X--4--4/--9----------5-------------------9-----8--9--|
X----------------------------------------------------|
X----------------------------------------------------|
X----------------------------------------------------|




sorry if this isn't right- you can screw around with 
it by listening to the song  I did this by memory
Comments