Eminem - Lose Yourself Chords & Tabs

 

Lose Yourself Chords & Tabs

Eminem Chords & Tabs

Version: 8 Type: Tab 0 ratings
1 star 2 stars 3 stars 4 stars 5 stars
comments

Lose Yourself Tab

e---------------------------------------------------------------------------
b--7-3-0----7-5-2--5-7-3-0----10-8-7-5---7-3-0----7-5-2---5-7-3-0-----------
g----------------2-------------------------------------2-------------------
d--------------------------------------------------------------------------
a--------------------------------------------------------------------------
e--------------------------------------------------------------------------

[ Tab from: http://www.guitartabs.cc/tabs/e/eminem/lose_yourself_tab_ver_8.html ]
e---------------------------------------------------------------------------
b---0-----------------------------------------------------------------------
g----0---4-2----------------------------------------------------------------
d-----2-------5-4-2------4-5-8-----------7-------7-------8-------8-------7--
a------------------------------------5-5-5-5-5-5-5-5-5-5-5-5-5-5-5-5-5-5-5--
e---------------------------------------------------------------------------

that's all
have fun    
we love you israel 
peace!!!!!!! :)
Comments