Eminem - Lose Yourself Chords & Tabs

 

Lose Yourself Chords & Tabs

Eminem Chords & Tabs

Version: 3 Type: Tab 3 ratings
1 star 2 stars 3 stars 4 stars 5 stars
comments

Lose Yourself Tab

   
Song: Lose yourself
Artist : EMINEM
Album: 8 mile Soundtrack
As tabbed by: Ryan Crane
 
This song can be played in several ranges on the guitar board, but I choose
the fatest part of the board. It gives me the fender strat sound from the
song.
When playing set tunning knob to have rhythem and treble to get a clear
sound.
No distortion obviously.
 
2/4 TIME Signature
Normal Tunning
Key: D
 
D5: X57XXX
D/A#:X58XXX
 
[ Tab from: http://www.guitartabs.cc/tabs/e/eminem/lose_yourself_tab_ver_3.html ]
Main Riff (Guitar 1)
Intro
4x (on the forth time go to riff2.)
e-----------------------------------------------------------------------------
B-----------------------------------------------------------------------------
G-----------------------------------------------------------------------------
D----7---7---7---7---7---7---7---7---8---8---8---8---8---8---8---8----8--0--7-
A----5---5---5---5---5---5---5---5---5---5---5---5---5---5---5---5----5-----5-
E-----------------------------------------------------------------------------
 
Main Riff 2
e-----------------------------------------------------------------------------
B-----------------------------------------------------------------------------
G-----------------------------------------------------------------------------
D----7---7---7---7---7---7---7---7---8---8---8---8---8---8---8---8----8-------
A----5---5---5---5---5---5---5---5---5---5---5---5---5---5---5---5----5-------
E-----------------------------------------------------------------------------
 
e-------------------------------------
B-------------------------------------
G-------------------------------------
D--5---7---8----7---7----8---7---7----
A-------------------------------------
E-------------------------------------


This song is a very good learning tool to help you progress through your guitar experiances.
Enjoi and ROCK ON Muda Fukas 
Comments