Eminem - Lose Yourself Chords & Tabs

 

Lose Yourself Chords & Tabs

Eminem Chords & Tabs

Version: 11 Type: Tab

Lose Yourself Tab

Artist: Eminem
Song: Lose Yourself
Tabbed by: Jimmy
Tuning: standard

Piano Introduction

Guitar 1
e|-6-----6-4-----4-6----------9-7-6---6-----6-4-----4-6---------------------|
B|---7-------6-------7--------------9---7-------6-------7-------------------|
G|-----8-------6-------8------------------8-------6-------8-----------------|
D|--------------------------------------------------------------------------|
A|--------------------------------------------------------------------------|
E|--------------------------------------------------------------------------|

Guitar 2
e|--------------------------------------------------------------------------|
B|-------------9----------------------------------9-------------------------|
G|-8--------10-------8-11---8-11------8--------10-------8-11---8-11---------|
D|--------11-------9------9------------------11-------9------9--------------|
A|--------------------------------------------------------------------------|
E|--------------------------------------------------------------------------|
[ Tab from: http://www.guitartabs.cc/tabs/e/eminem/lose_yourself_tab_ver_11.html ]
Guitar 1
e|-------------------------6-7-10-------------------------------------------|
B|-4-0---4-2-----0----------------------------------------------------------|
G|-----1-----------3-1--------------3-5-7-----------------------------------|
D|--------------------------------------------------------------------------|
A|--------------------------------------------------------------------------|
E|--------------------------------------------------------------------------|

Guitar 2
e|--------------------------------------------------------------------------|
B|-----4-------2------------------------------------------------------------|
G|---4-------3----------------------3---3-----------------------------------|
D|-6-------4---------3------------3-----------------------------------------|
A|------------------------------1-------------------------------------------|
E|--------------------------------------------------------------------------|

Riff   |PM|          |PM|          |PM|
e|--------------------------------------------------------------------------|
B|--------------------------------------------------------------------------|
G|--------------------------------------------------------------------------|
D|-7777-00--77p0-8888-00--88p0-7777-00--77p0-8888-8p0-7-8p0-7---------------|
A|-5555-55--55---5555-55--55---5555-55--55---5555-5---5-5---5---------------|
E|--------------------------------------------------------------------------|