Eminem - Like Toy Soldiers Chords & Tabs

 

Like Toy Soldiers Chords & Tabs

Eminem Chords & Tabs

Version: 4 Type: Tab 0 ratings
1 star 2 stars 3 stars 4 stars 5 stars
comments

Like Toy Soldiers Tab

'Like toy soldiers'
Tabbed by:marshi   
THIS IS MY FIRST TAB

     'Do this threw thw whole song besides the verses"
e|--7-7-4-0-7-7-2---7-7-4-0-7/9-4-2------0-0-2/4-4-0--------|
b|----------------4-----------------------------------------|
g|----------------------------------------------------------|
d|----------------------------------------------------------|
a|----------------------------------------------------------|
e|----------------------------------------------------------|
[ Tab from: http://www.guitartabs.cc/tabs/e/eminem/like_toy_soldiers_tab_ver_4.html ]
     'Do this in the verses'
e|-----------------------------------------------------------------|
b|-----------------------------------------------------------------|
g|------------------------------------------------4/6-4------------|
D|-9-9-9-9--2-2-2-2--9-9-9-9--4-4-4-4--9-9-9-9--4-4/6-4------------|
a|-9-9-9-9--2-2-2-2--9-9-9-9--4-4-4-4--9-9-9-9--4-2/4-2------------|
e|-7-7-7-7--0-0-0-0--7-7-7-7--2-2-2-2--7-7-7-7--2------------------|
  pm................................................................
Comments