Eminem - Hailies Song Chords & Tabs

 

Hailies Song Chords & Tabs

Eminem Chords & Tabs

Version: 9 Type: Tab

Hailies Song Tab

                        Hailie's song - Eminem
-------------------------------------------------------------------------------
Tabbed by: Skoolstinks
Email:usuck@yahoo.com
[ Tab from: http://www.guitartabs.cc/tabs/e/eminem/hailies_song_tab_ver_9.html ]
e|----------------------0---------------------------------------------------|
B|-0-1-3-1-0-3-1-0-0-1---3-1-3-1-3-0----------------------------------------|
G|2-------------------------------------------------------------------------|
D|--------------------------------------------------------------------------|
A|--------------------------------------------------------------------------|
E|--------------------------------------------------------------------------|

e|----------------------0----------0-3-5------------------------------------|
B|-0-1-3-1-0-3-1-0-0-1---3-1-3-1-3-0-3-5------------------------------------|
G|2-------------------------------------------------------------------------|
D|--------------------------------------------------------------------------|
A|--------------------------------------------------------------------------|
E|--------------------------------------------------------------------------|

bascically, you take that and play it until the song is over (this is my first tab so it 
suck a little)