Eminem - Hailies Song Chords & Tabs

 

Hailies Song Chords & Tabs

Eminem Chords & Tabs

Version: 3 Type: Tab 0 ratings
1 star 2 stars 3 stars 4 stars 5 stars
comments

Hailies Song Tab

Eminem - Haile's Song
Tabbed By: Jef
EMail: tomdelongegtr@hotmail.com


i think haile's song sonds better this way

e|--------------------------------------------
B|--------------------------------------------
G|-------7----7-----------7H9-7-5-7-5-7-4-----
D|-7-9-10-10-9-10-9-9/10----------------------
A|--------------------------------------------
E|--------------------------------------------

e|--------------------------------------------
B|--------------------------------------------
G|-------7----7-----------7H9-7-5-7-5-7/9-----
D|-7-9-10-10-9-10-9-9/10----------------------
A|--------------------------------------------
E|--------------------------------------------
[ Tab from: http://www.guitartabs.cc/tabs/e/eminem/hailies_song_tab_ver_3.html ]
e|-------------------------------------------
B|-------------------------------------------
G|7H9-7-5-7-5-7/9-9/12-12/14-----------------
D|-------------------------------------------
A|-------------------------------------------
E|-------------------------------------------

let the last note ring ===========song hailes song
artist eminem 
album the eminem show
email me @ jason_wassup@hotmail.com


e|----------------------------------------
B|----------------------------------------
G|-------7----7-----------7H9-7-5-7-5-7-4-
D|-7-9-10-10-9-10-9-9-9/10----------------
A|----------------------------------------
E|----------------------------------------


e|----------------------------------------
B|----------------------------------------
G|-------7----7-----------7H9-7-5-7-5-7/9-
D|-7-9-10-10-9-10-9-9-9/10----------------
A|----------------------------------------
E|----------------------------------------


e|----------------------------------------
B|----------------------------------------
G|7H9-7-5-7-5-7/9-9/12-12/14--------------
D|----------------------------------------
A|----------------------------------------
E|----------------------------------------
Comments