Eminem - Cleaning Out My Closet Chords & Tabs

 

Cleaning Out My Closet Chords & Tabs

Eminem Chords & Tabs

Version: 4 Type: Tab 0 ratings
1 star 2 stars 3 stars 4 stars 5 stars
comments

Cleaning Out My Closet Tab

Rick Tuttle,email me if you have any changes
RickyT89@yahoo.com
[ Tab from: http://www.guitartabs.cc/tabs/e/eminem/cleaning_out_my_closet_tab_ver_4.html ]
E-----------------------------------
B-----------------------------------
G----------2-----------------2------
D------------2-----------------2----
A--0-0-2-3-----3-2---0-0-2-3-----3-2
E-----------------------------------

E-----------------------------------
B----------------------0------------
G------------------1h2---1h2--------
D----------3-2----------------------
A------0-2-----3-2------------------
E--1-1------------------------------
Comments