Eminem - Cleaning Out My Closet Chords & Tabs

 

Cleaning Out My Closet Chords & Tabs

Eminem Chords & Tabs

Version: 3 Type: Tab 0 ratings
1 star 2 stars 3 stars 4 stars 5 stars
comments

Cleaning Out My Closet Tab

                       EMINEM
                 CLEANIN OUT MY CLOSET


By God Of F**k

Main Riff
[ Tab from: http://www.guitartabs.cc/tabs/e/eminem/cleaning_out_my_closet_tab_ver_3.html ]
--------------------------------------------
--------------------------------------------
--------------------------------------------
-------2--2--------------2--2---------------
-0-0-3------3-2----0-0-3------3-2-----------
--------------------------------------------

-----------------------------------------
-----------------------------------------
-------------------1-2-4-1-2-------------
-------2-3-2-----------------------------
-0-0-3-------3-2-------------------------
-----------------------------------------
Comments