Eminem - Cleaning Out My Closet Chords & Tabs

 

Cleaning Out My Closet Chords & Tabs

Eminem Chords & Tabs

Version: 1 Type: Tab 0 ratings
1 star 2 stars 3 stars 4 stars 5 stars
comments

Cleaning Out My Closet Tab

     
     
  
     Hey ppol juz check diz out. I donno if itz correct or wrong. 
     I juz combined ma tabs and ma frend's tab (brackz.)

     G--------------------I---------------------
     D--------2--2--------I--------2--2---------
     A--0-0-3------3-2----I--0-0-3------3-2-----
     E--------------------I---------------------

     G------------------I--13-13-14-16-13-14-14-
     D-------2----------I-----------------------
     A-----3---3--------I-----------------------  
     E-1-1-------1-0----I-----------------------  

            Or juz do dis for more easier!
[ Tab from: http://www.guitartabs.cc/tabs/e/eminem/cleaning_out_my_closet_tab.html ]
     e--------------------I---------------------
     B--------------------I---------------------
     G--------------------I---------------------
     D--------2--2--------I--------2--2---------
     A--0-0-3------3-2----I--0-0-3------3-2-----
     E--------------------I---------------------

     e------------------I--4-4-5-7-4-5-5--------
     B------------------I-----------------------
     G------------------I-----------------------
     D-------2----------I-----------------------
     A-----3---3--------I-----------------------  
     E-1-1-------1-0----I-----------------------  

          Any comnts or sugestion juz Email me (burn_up_08@yahoo.com)
                                      (miyazaki_wakai_ichiban08@hotmail.com)
Comments