Eminem - 3 Verses Chords & Tabs

 

3 Verses Chords & Tabs

Eminem Chords & Tabs

Version: 1 Type: Bass Tab 0 ratings
1 star 2 stars 3 stars 4 stars 5 stars
comments

3 Verses Bass Tab

Eminem - 3 Verses
Tabbed By: jason trainor
EMail: jason_wassup@hotmail.com


verse 1
g|---------------------------------|
d|-----------0h2h4---0h2h4---------|
a|-2p0---2-2-------2-------2p0---2-|
e|-----2-----------------------2---|

[ Tab from: http://www.guitartabs.cc/tabs/e/eminem/3_verses_btab.html ]
verse 2
g|--------------------------------------------------------------|
d|--------------------------------------------------------------|
a|-0--2-4--3-2--1-3----0--2-4--3--2--1-3-----0--2-4--3-2--1-3---|
e|------------------3--------------------3--------------------3-|


verse 3
g|-----------------------|
d|-----------------------|
a|-1-3-5-7----0-2-4-6----|
e|----------3----------3-|
Comments