Emery - Walls Chords & Tabs

 

Walls Chords & Tabs

Emery Chords & Tabs

Version: 1 Type: Tab 0 ratings
1 star 2 stars 3 stars 4 stars 5 stars
comments

Walls Tab

   
song: Walls
band: Emery
tabber: Vich

i couldn't find a tab for this anywhere so i sat down with someone and we figured it out


low distotion (Are you listening...)
Eb|---------------------------------------------------|
Bb|---------------------------------------------------|
Gb|---------------------------------------------------|
Db|-00000--000--00000--00-0-77777--77-77-33333--33-33-|
Ab|-00000--000--00000--00-0-77777--77-77-33333--33-33-|
Db|-00000--000--00000--00-0-77777--77-77-33333--33-33-|


The fill before the chorus. while the key board part is going
Eb|-00100-00100-00300-00300-|
Bb|-------------------------|
Gb|-------------------------|
Db|-------------------------|
Ab|-------------------------|
Db|-------------------------|

Chorus distortion (Sometimes...)
Eb|-------------------------------|
Bb|-------------------------------|
Gb|-------55555-55555-22222-22222-|
Db|-0---0-55555-55555-22222-22222-|
Ab|-0---0-33333-33333-00000-00000-|
Db|-0---0-------------------------|

(Your eyes...)
Eb|-------------------------|
Bb|-------------------------|
Gb|-------------------------|
Db|-0---777777-3-(00000000)-|
Ab|-0---777777-3-(00000000)-|
Db|-0---777777-3-(00000000)-|

(These fights with your arms...)
Eb|--------------------------------------|
Bb|--------------------------------------|
Gb|--------------------------------------|
Db|-77------33------00------77----7--7---|
Ab|-77------33------00------77----7--7---|
Db|-77------33------00------77----7--7---|

Gtr. 2 play this in while inbetween gtr.1's strums 
Eb|--------------------------------------------------|
Bb|--------------------------------------------------|
Gb|-99-9----55-5----22-22----99-99-99-99-9-----------|
Db|-77-7-x4-33-3-x4-00-00-x2-77-77-77-77-7-----------|
Ab|-77-7----33-3----00-00----77-77-77-77-7-----------|
Db|--------------------------------------------------|
[ Tab from: http://www.guitartabs.cc/tabs/e/emery/walls_tab.html ]
Gtr. 1 (Tear out these veins...)
Eb|-------------------------------------------------------|
Bb|-------------------------------------------------------|
Gb|-------------------------------------------------------|
Db|-7-7-7-7-7-7-7-7-3-3-3-3-3-3-3-3-00-00-000000-77777777-|
Ab|-7-7-7-7-7-7-7-7-3-3-3-3-3-3-3-3-00-00-000000-77777777-|
Db|-7-7-7-7-7-7-7-7-3-3-3-3-3-3-3-3-00-00-000000-77777777-|

Gtr. 2
Eb|----------------------------------------------------------------|
Bb|-9-9-9-9-9-9-9-9-5-5-5-5-5-5-5-5-22-22-10-6-3-------------------|
Gb|-9-9-9-9-9-9-9-9-5-5-5-5-5-5-5-5-22-22-10-6-3-99999999-55555555-|
Db|-7-7-7-7-7-7-7-7-3-3-3-3-3-3-3-3-00-00-7--3-0-99999999-55555555-|
Ab|----------------------------------------------77777777-33333333-|
Db|----------------------------------------------------------------|

the slide part
Eb|----------------------------------|
Bb|----------------------------------|
Gb|----------------------------------|
Db|-10--10/3--3\9--9\12--00-00-0-0---|
Ab|----------------------00-00-0-0---|
Db|----------------------00-00-0-0---|
                         pm.......

this is the really cool build(Let the walls have their say...)
Eb|--------------------|
Bb|-1010101010101010---|
Gb|-9-9-9-9-9-9-9-9----|
Db|-7-7-7-7-7-7-7-7----|
Ab|--------------------|
Db|--------------------| Play this a bunch of times

This is played along with the last part
Eb|-00000000-11111111-|
Bb|-------------------|
Gb|-------------------|
Db|-------------------|
Ab|-------------------|
Db|-------------------|


the crazy part (There's no conversation...)
Eb|-----------------|
Bb|-----------------|
Gb|-----------------|
Db|-00------33------|
Ab|-00------33------|
Db|-00------33------|

Cont. (Wake from these dreams...)
Eb|--------------------|
Bb|--------------------|
Gb|--------------------|
Db|-000---00--33---33--|
Ab|-000---00--33---33--|
Db|-000---00--33---33--|

the quick ending (This place, These walls...)
Eb|------------|
Bb|------------|
Gb|-55442000---|
Db|------------|
Ab|------------|
Db|------------|

outro
Eb|---------------|
Bb|---------------|
Gb|-7--7--7--7--7-|
Db|-7--7--7--7--7-|
Ab|-5--5--5--5--5-|
Db|-0--0--0--0--0-|
Comments