Emery - Walls Chords & Tabs

 

Walls Chords & Tabs

Emery Chords & Tabs

Version: 1 Type: Bass Tab 0 ratings
1 star 2 stars 3 stars 4 stars 5 stars
comments

Walls Bass Tab


Emery :::: Walls

Tabbed by : IgorAFI

Well I use a 5-string so I tabbed for a 5-string bass..
and I'll try to make a 4-string version of this tab ^^

Listen to the song for strumming

*Are You Listening*
g--------------------------------------|
d--------------------------------------|
a--------------------------------------|  X2
e--------------------4444-444-0000-000-|
b---2222-22-2222-222-------------------|

*My hands seem*
g----------------------------------------------|
d----------------------------------------------|
a----------------------------------------------|  X2
e--------------------44-4-44-4-44-00-0-00-0-00-|
b---2~~~-22-2~~~-222---------------------------|

Piano part:
g-----------------------|
d-----------------------|
a-----22222-2-----------|
e--------------4444-444-|
b---2-------------------|

*Sometimes*
g---------------------------------|
d---------------------------------|
a---------22-22-22-22-------------|
e---------------------44-44-44-44-|
b---2~--2~------------------------|

*your eyes*
g------------------|
d------------------|
a------------------|
e------4~-0~-------|
b---2~-------22222-|

*these fights*
g---------------------|
d---------------------|
a---------------------|
e---44--00----44-4--4-|
b----------22---------|
[ Tab from: http://www.guitartabs.cc/tabs/e/emery/walls_btab.html ]
Pre-Verse
g----------------------------------------------|
d----------------------------------------------|
a----------------------------------------------|
e--------------------44-4-44-4-44-00-0-00-0-00-|
b---2~~~-22-2~~~-222---------------------------|

*is this your lesson*
g----------------------------------------------|
d----------------------------------------------|
a----------------------------------------------|  X2
e--------------------44-4-44-4-44-00-0-00-0-00-|
b---2~~~-22-2~~~-222---------------------------|

Piano part:
g-----------------------|
d-----------------------|
a-----22222-2-----------|
e--------------4444-444-|
b---2-------------------|

*Sometimes*
g---------------------------------|
d---------------------------------|
a---------22-22-22-22-------------|
e---------------------44-44-44-44-|
b---2~--2~------------------------|

*your eyes*
g------------------|
d------------------|
a------------------|
e------4~-0~-------|
b---2~-------22222-|

*let the walls* (not sure)
g----------------------------|
d----------------------------|
a-------4-4-44----4-4----4-4-| do this until next part
e----------------------------|
b---2-2-------2-2----2-2-----|

*there's no conversation*
g------------------|
d------------------|
a------------------|
e------------------|
b---22-----55------|

*Wake from*
g------------------|
d------------------|
a------------------|
e------------------|
b---222-22--555-55-|

Ending:
g------------------|
d------------------|
a------------------|
e------------------|
b---222-22--222-2x-|


*Any comments, correction, sugestion, death threat or anything email me at: igorbrazil@hotmail.com
Thank you.
Comments