Emery - To Whom It May Concern Chords & Tabs

 

To Whom It May Concern Chords & Tabs

Emery Chords & Tabs

Version: 1 Type: Tab 0 ratings
1 star 2 stars 3 stars 4 stars 5 stars
comments

To Whom It May Concern Tab

   
-------------------------------------------------------------------------------
			"to Whom It May Concern" - Emery
-------------------------------------------------------------------------------
Tabbed by: Brandon Elam					
Email: Bttrnu@aol.com

Tuning:Db Ab Db Gb Bb eb

this is emery's latest song thet has been released...its an incredible song...i have it set up 
so that guitar 1 is all the heavy disorted parts and guitar two is the lighter guitar
note: there are several parts where the keyboardist picks up and accoustic during the song and
plays very very lighly in the backround..these parts are extreamely hard to tab out and 
unnecessary for this tab and have not been included 
 
GUITAR 1 parts

intro (both guitars)			
 |---------------------------------------------------------------------------|
 |---------------------------------------------------------------------------|
 |--111111111111111111111111-9-9-9-9-9-9-9-9-9-9-9-9-------------------------|
 |--x-x-x-x-x-x-x-x-x-x-x-x--x-x-x-x-x-x-x-x-x-x-x-x-------------------------|
 |--9-9-9-9-9-9-9-9-9-9-9-9--7-7-7-7-7-7-7-7-7-7-7-7-------------------------|
 |---------------------------------------------------------------------------|

intro cont.
 |---------------------------------------------------------------------------|
 |---------------------------------------------------------------------------|
 |--111111111111111111111111-9-9-9-9-9-9-9-9-9-9-9-9--11---------------------|
 |--x-x-x-x-x-x-x-x-x-x-x-x--x-x-x-x-x-x-x-x-x-x-x-x--x----------------------|
 |--9-9-9-9-9-9-9-9-9-9-9-9--7-7-7-7-7-7-7-7-7-7-7-7--9----------------------|
 |---------------------------------------------------------------------------|

riff 1 (:14) 
 |---------------------------------------------------------------------------|
 |---------------------------------------------------------------------------|
 |--7-7-7-7-7-7-7-7----------------------------------------------------------|
 |--7-7-7-7-7-7-7-7--7-7-7-7-7-7-7-7--9-9---4-4---2~-------------------------| X3
 |--5-5-5-5-5-5-5-5--7-7-7-7-7-7-7-7--9-9---4-4---2~-------------------------|
 |-------------------7-7-7-7-7-7-7-7--9-9---4-4---2~-------------------------|

end of third time (:39) 
 |---------------------------------------------------------------------------|
 |---------------------------------------------------------------------------|
 |---------------------------------------------------------------------------|
 |--9-9-9-9-9-9-9-9-9-9-9-9-9-9----------------------------------------------|
 |--9-9-9-9-9-9-9-9-9-9-9-9-9-9----------------------------------------------|
 |--9-9-9-9-9-9-9-9-9-9-9-9-9-9----------------------------------------------|
 

bridge (no guitar 1)
 
bridge 2(1:15)
 |---------------------------------------------------------------------------|\
 |---------------------------------------------------------------------------| \
 |---------------------------------------------------------------------------|  \
 |---99---99---99---99---44---44---44---44--7--------------------------------|   \
 |---99---99---99---99---44---44---44---44--7-x16----------------------------|    \
 |---99---99---99---99---44---44---44---44--7--------------------------------|     \
                                                                               start this at
 |---------------------------------------------------------------------------| 1:15 and again 
 |---------------------------------------------------------------------------|  at 2:10
 |-------------------------------7-------------------------------------------|
 |---99---99---99---99---5-------7-x8--9-------------------------------------|
 |---99---99---99---99---5-x16---5-----9-x8----------------------------------|
 |---99---99---99---99---5-------------9-------------------------------------|

after 2nd bridge 2 (2:34)
 |---------------------------------------------------------------------------|
 |---------------------------------------------------------------------------|
 |--11-11111111---11-11111111---9--9-9-9-9---9--9-9-9-9----------------------|
 |--x--x-x-x-x----x--x-x-x-x----x--x-x-x-x---x--x-x-x-x----------------------| X2
 |--9--9-9-9-9----9--9-9-9-9----7--7-7-7-7---7--7-7-7-7----------------------|
 |---------------------------------------------------------------------------|
 
 |---------------------------------------------------------------------------|
 |---------------------------------------------------------------------------|
 |--12-12121212---12-12121212---11-11111111--11-1111111----------------------|
 |--x--x-x-x-x----x--x-x-x-x----x--x-x-x-x---x--x-x-x-x----------------------|X2
 |--10-10101010---10-10101010---9--9-9-9-9---9--9-9-9-9----------------------|
 |---------------------------------------------------------------------------|

 |---------------------------------------------------------------------------|
 |---------------------------------------------------------------------------|
 |--11-11111111---11-11111111---9--9-9-9-9---9--9-9-9-9----------------------|
 |--x--x-x-x-x----x--x-x-x-x----x--x-x-x-x---x--x-x-x-x----------------------| X2
 |--9--9-9-9-9----9--9-9-9-9----7--7-7-7-7---7--7-7-7-7----------------------|
 |---------------------------------------------------------------------------|

 |---------------------------------------------------------------------------|
 |---------------------------------------------------------------------------|
 |--12-12121212---14-14141414---16-16161616--18-18181818-19~-----------------|
 |--x--x-x-x-x----x--x-x-x-x----x--x-x-x-x---x--x-x-x-x--x-------------------|
 |--10-10101010---12-12121212---14-14141414--16-16161616-17~-----------------|
 |---------------------------------------------------------------------------|

 outro (3:06)			
 |---------------------------------------------------------------------------|
 |---------------------------------------------------------------------------|
 |--111111111111111111111111-9-9-9-9-9-9-9-9-9-9-9-9-------------------------|
 |--x-x-x-x-x-x-x-x-x-x-x-x--x-x-x-x-x-x-x-x-x-x-x-x-------------------------|
 |--9-9-9-9-9-9-9-9-9-9-9-9--7-7-7-7-7-7-7-7-7-7-7-7-------------------------|
 |---------------------------------------------------------------------------|

outro cont.
 |---------------------------------------------------------------------------|
 |---------------------------------------------------------------------------|
 |--111111111111111111111111-9-9-9-9-9-9-9-9-9-9-9-9--11---------------------|
 |--x-x-x-x-x-x-x-x-x-x-x-x--x-x-x-x-x-x-x-x-x-x-x-x--x----------------------|
 |--9-9-9-9-9-9-9-9-9-9-9-9--7-7-7-7-7-7-7-7-7-7-7-7--9----------------------|
 |---------------------------------------------------------------------------|
________________________________________________________________________________
 
GUITAR 2

intro (both guitars)			
 |---------------------------------------------------------------------------|
 |---------------------------------------------------------------------------|
 |--111111111111111111111111-9-9-9-9-9-9-9-9-9-9-9-9-------------------------|
 |--x-x-x-x-x-x-x-x-x-x-x-x--x-x-x-x-x-x-x-x-x-x-x-x-------------------------|
 |--9-9-9-9-9-9-9-9-9-9-9-9--7-7-7-7-7-7-7-7-7-7-7-7-------------------------|
 |---------------------------------------------------------------------------|

intro cont.
 |---------------------------------------------------------------------------|
 |---------------------------------------------------------------------------|
 |--111111111111111111111111-9-9-9-9-9-9-9-9-9-9-9-9--11---------------------|
 |--x-x-x-x-x-x-x-x-x-x-x-x--x-x-x-x-x-x-x-x-x-x-x-x--x----------------------|
 |--9-9-9-9-9-9-9-9-9-9-9-9--7-7-7-7-7-7-7-7-7-7-7-7--9----------------------|
 |---------------------------------------------------------------------------|
[ Tab from: http://www.guitartabs.cc/tabs/e/emery/to_whom_it_may_concern_tab.html ]
Riff 1 (:14)
 |---------------------------------------------------------------------------|
 |---------------------------------------------------------------------------|
 |--111111111111111111111111-9-9-9-9-9-9-9-9-9-9-9-9--1111--9-9--7-----------|X3
 |--x-x-x-x-x-x-x-x-x-x-x-x--x-x-x-x-x-x-x-x-x-x-x-x--x-x---x-x--x-----------|
 |--9-9-9-9-9-9-9-9-9-9-9-9--7-7-7-7-7-7-7-7-7-7-7-7--9-9---7-7--5-----------|
 |---------------------------------------------------------------------------|

End of third time (:39) 
 |---------------------------------------------------------------------------|
 |---9-9-9-9-9-9-9-9-9-9-9-9-9-7---------------------------------------------|
 |---x-x-x-x-x-x-x-x-x-x-x-x-x-x---------------------------------------------|
 |---7-7-7-7-7-7-7-7-7-7-7-7-7-5---------------------------------------------|
 |---------------------------------------------------------------------------|
 |---------------------------------------------------------------------------|

*theres kinda a quick transition here....make sure you can get from
a medium distortion to a clean quickly*

riff 2 (soft and accoustic)
 |---------------------------------------------------------------------------|
 |---------------------------------------------------------------------------|
 |--11-111111--9-999-------6-666-6-666---------------------------------------|
 |--x--x x x---x-xxx-------x-xxx-x-xxx---------------------------------------|
 |--9--9 9 9---7-777-------4-444-4-444--------- -----------------------------|
 |---------------------------------------------------------------------------| 
 
riff 2 cont. (:51)
 |---------------------------------------------------------------------------|
 |---------------------------------------------------------------------------|
 |--11-111111-9-999--14-141414---7-777--6/777-6/777--9999999999--------------|
 |--x--x-x-x--x-xxx--x--x-x-x----x-xxx--x-xxx-x-xxx--xxxxxxxxxx--------------|
 |--9--9-9-9--7-777--12-121212---5-555--4/555-4/555--7777777777--------------|
 |---------------------------------------------------------------------------|

Riff 3 (:58)                                   V *observe change here*
 |-10-9----10-9----10-9----10-9----5-4---5-4---4-5----5-4---------------------|
 |------10------10------10------10-----5-----5-----5-----5-------------------|
 |---------------------------------------------------------------------------|
 |---------------------------------------------------------------------------|
 |---------------------------------------------------------------------------|
 |---------------------------------------------------------------------------|

 |-10-9----10-9----10-9----10-9----5-4---5-4---4-5---4-----------------------|
 |------10------10------10------10-----5-----5-----5-------------------------|
 |---------------------------------------------------------------------------|
 |---------------------------------------------------------------------------|
 |---------------------------------------------------------------------------|
 |---------------------------------------------------------------------------|  
 
Riff 4 (1:39)
 |---------------------------------------------------------------------------|
 |------------------------------------------------777777------88888888888----|
 |-77777766666677777766666699999977777799999777777------999999---------------|
 |---------------------------------------------------------------------------|
 |---------------------------------------------------------------------------|
 |---------------------------------------------------------------------------|
 
riff 5 (1:50)
 |-9----9------------------4-------------------------------------------------|
 |--10----10-----------5-7---5-3-2~------------------------------------------|
 |----11-----11-7--4/6-------------------------------------------------------|
 |---------------------------------------------------------------------------|
 |---------------------------------------------------------------------------|
 |---------------------------------------------------------------------------|
riff 6 (1:59)
 |-10-9----10-9----10-9----10-9----5-4---5-4---4-5~--------------------------|
 |------10------10------10------10-----5-----5-------------------------------|
 |---------------------------------------------------------------------------|
 |---------------------------------------------------------------------------|
 |---------------------------------------------------------------------------|
 |---------------------------------------------------------------------------|
 
riff 7 (2:10)
 |---------------------------------------------------------------------------|
 |-4444-6666-7777-9999-6666-7777-66666666666666666666------------------------|
 |-xxxx-xxxx-xxxx-xxxx-xxxx-xxxx-xxxxxxxxxxxxxxxxxxxx------------------------|
 |-2222-4444-5555-7777-4444-5555-44444444444444444444------------------------|
 |---------------------------------------------------------------------------|
 |---------------------------------------------------------------------------|

riff 8 (2:22)
 |---------------------------------------------------------------------------|
 |---------------------------------------------------------------------------|
 |-4(6)4-4(6)4-4(6)4-4(6)4---------------------------------------------------|
 |---------------------------------------------------------------------------|
 |---------------------------------------------------------------------------|
 |---------------------------------------------------------------------------|

riff 9 (2:50)
 |---------------------------------------------------------------------------|
 |---------------------------------------------------------------------------|
 |---16--16-11-11-9-9-9-9----16--16-11-11-9-9-9-9----------------------------|
 |---------------------------------------------------------------------------|
 |-14--14--9--9--7-7-7-7---14--14--9--9--7-7-7-7-----------------------------|
 |---------------------------------------------------------------------------|
 
 |---------------------------------------------------------------------------|
 |---------------------------------------------------------------------------|
 |--9-9-9-9-9-9-7-7-7-7-7-7-9-9-9-9-9-9-7-7-7-7-7-7--------------------------|
 |---------------------------------------------------------------------------|
 |-7-7-7-7-7-7-5-5-5-5-5-5-7-7-7-7-7-7-5-5-5-5-5-5---------------------------|
 |---------------------------------------------------------------------------|
 
 |---------------------------------------------------------------------------|
 |---------------------------------------------------------------------------|
 |---------------------------------------------------------------------------|
 |-99999999999999997777777777777777------------------------------------------|x2
 |-xxxxxxxxxxxxxxxxxxxxxxxxxxxxxxxx------------------------------------------|
 |-77777777777777775555555555555555------------------------------------------|
 
 |---------------------------------------------------------------------------|
 |---99999999999997----------------------------------------------------------|
 |---xxxxxxxxxxxxxx----------------------------------------------------------|
 |---77777777777775----------------------------------------------------------|
 |---------------------------------------------------------------------------|
 |---------------------------------------------------------------------------|

end on
 |---------------------------------------------------------------------------|
 |---7~----------------------------------------------------------------------|
 |---7~----------------------------------------------------------------------|
 |---7~----------------------------------------------------------------------|
 |---5~----------------------------------------------------------------------|
 |---------------------------------------------------------------------------|
 
| /  slide up
| \  slide down
| h  hammer-on
| p  pull-off
| ~  vibrato
| +  harmonic
| x  Mute note
===============================================================================
Comments